• Song:

    Burning James

  • Artist:

    10 Ft Ganja Plant

  • Album:

    Bass Chalice

Title: Burning James
Band: 10 Ft. Ganja Plant
Album: Bass Chalice
Tabber: Billybusa(me)

This is repeated the entire song:

G||--------------------------|--------------------------|
D||--------------------------|--------------------------|
A||-----9--9--9--9--9--9--9--|--7-----------------------|
E||--9-----------------------|--------------------------|

With this every now and then:
--------------------------|-----------------------------||
--------------------------|--------------6--7--6--------||
-----9--9--9--9--9--9--9--|--7--------------------7-----||
--9-----------------------|-----------------------------||

This is an awesome atmospherical song by the reggae band 10 Ft. Ganja Plant!
Show more