• Song:

    Sunny Foundation

  • Artist:

    10 Ft Ganja Plant

  • Album:

    Presents

Intro:
|-------------4~---4676-4-4------------|
|--7-7---5-5-------------7-4-----------|
|---7-7---5----------------------------|
|--------------------------------------|

|-------------4~-----------------------|
|--7-7---5-5---------------------------|
|---7-7---5----------------------------|
|--------------------------------------|

Verse:
|--------------------------------------|
|-------45--54-----77-4-4-77-74--------|
|--55-57------7--------7-------7-------|
|--------------------------------------|

|--------------------------------------|
|-------45--54-------------------------|
|--55-57------7------------------4)----|
|------------------7-5555-75(5-57------|

Enjoy!
Show more