--------------------------------------------------------------------------
			     Haw - 16 Horsepower
--------------------------------------------------------------------------
Tabbed by: deHufter
Email: kurtkill@hotmail.com

Tuning: standard

Intro + verse : (listen for chord changes)

   C#m  F#m C#m  Em C#m              Am  Abm
e|--4---9----4---7---9----------------5---4------|
B|--5---10---5---8---10---------------5---4------|
G|--6---11---6---9---11---------------5---4------|
D|--6---11---6---9---11--twice-then:--7---6------|
A|--4---9----4---7---9----------------7---6------|
E|------------------------------------5---4------|

Little bridge:
   Em  Ebm  Dm C#m Abm (fast chance)
e|--7---6---5---4/11/-----------|
B|--8---7---6---5/12/-----------|
G|--9---8---7---6/13/-----------|
D|--9---8---7---6/13/-----twice-|
A|--7---6---5---4/11/-----------|
E|------------------------------|

That's basically the whole song. Sometimes he throws in a high Abm
like in the bridge.

Those minor chords give a nice haunting sound the song. Enjoy!
Show more