sponsored links
28 DAYS
STEALING CHAIRS
SAY WHAT? (album version)
Tabbed by al@onedollarshort.zzn.com
**NOTE THIS ISN'T FOR THE VERSION RECORDED WITH APOLLO 440**
NORMAL TUNING

INTRO/VERSE

|----------------------------------------------|
|----------------------------------------------|
|-------------------------------------6-6-6-6--|
|--7/-9-9-9-7-7/-9-9-9-7-7/-9-9-9-7-7-X-X-X-X--|
|--5/-7-7-7-5-5/-7-7-7-5-5/-7-7-7-5-5-4-4-4-4--|
|----------------------------------------------|x8

CHORUS
|---------------------------------------------------------------
|---------------------------------------------------------------
|---------------------------------------------------------------
|---------------------------------------------------------XXXX--
|--7--7-7/-5-5-5-5-2-2-5-2-5-5-5--7-7-7-7-5-5-5-5-2-2-2-2-XXXX--
|--5--5-5/-3-3-3-3-0-0-3-0-3-3-3--5-5-5-5-3-3-3-3-0-0-0-0-XXXX--
                       *****
-----------------------------------------------------------------|
-----------------------------------------------------------------|
-----------------------------------------------------------------|
------------------------------------------------4-4-4-6-6-6-6-6--|
--7--7-7/-5-5-5-5-2-2-5-2-5-5-5-7-7-7-7-5-5-5-5-2-2-2-4-4-4-4-4--|
--5--5-5/-3-3-3-3-0-0-3-0-3-3-3-5-5-5-5-3-3-3-3------------------|
                      *****
****PLAY THIS BIT QUICK
----------------------
VERSE 2 - SAME (x8)
----------------------
CHORUS 2 - PLAY THE FIRST BAR TWICE, THEN THE SECOND BAR
----------------------
BRIDGE(clean)
|-------------------------|
|-------------------------|
|-------------------------|
|-------------------------|
|--5-7-5-7-5-7-5-7--etc.--|
|-------------------------|


VERSE/INTRO RIFF X4
----------------------
CHORUS 3 - SAME AS CHORUS 2.
----------------------

                           MELBOURNE PRIDE
Show more
sponsored links
sponsored links