Bueno aquí el bajo de libertad y dale bien los tiempos

COMIENZA EN: "cansado de esperar..."
G|------------------------------|
D|------------------------------|
A|---2-4-2----2-4-2----2-4-2-0--|    X3
E|-0--------0--------0----------|

"eres libre ya, nadie te seguirá..."
G|---------------------------|
D|---------------------------|
A|---24----2-4-2----2-4-2-0--|
E|-0-----0--------0----------|

G|-------------------------|
D|-------------------------|
A|-44444444-222222-000000--|
E|-------------------------|

"irritabilidad, frustración y ..."
G|--------------------------------------------|
D|--------------------------------------------|
A|--------4-44444442-222220-000000----2-4-2-0-|
E|-0000000--------------------------0---------|

CORO::>>

G|--------------------------------|
D|--------------------------------|
A|--------222222-444444-22220000--|    X2
E|-000000-------------------------|

Parte final::>>

G|-----------------------------------------|
D|-----------------------------------------|
A|-------------222222-0000-444444-22220000-|
E|-000000-5555-----------------------------|

Cualquier duda escríbanme a mi msn ajpe_24@hot...
Show more