• Song:

    Im Already Gone

  • Artist:

    A Day To Remember

A Day To Remember - I'm Already Gone

Love this album. Love this song.
Hope you like the tab, the other one I saw kind of confused the crap out of me.
It's really only 5 chords in all.
I don't know my chords like I should so I'm just going to tab the chord and show which 
progression belongs to which. Make sense? Sweet.
I recommend listening to the song to get the strumming down.
Also, I don't think you need to use the high D string, but I like it... So there's that.

Tuning:DGCFAD (D Standard)

Intro & Verse:

Guitar 1

D|----3-----3----|
A|----3-----3----|
F|----0-----2----|
C|----2-----2----|
G|----3-----0----|
D|----x-----x----| x4 For Intro AND Verse

PreChorus:

Guitar 1

D|----3-----3-----3-----3----|
A|----3-----3-----3-----3----|
F|----0-----2-----0-----2----|
C|----2-----0-----2-----0----|
G|----2-----0-----3-----0----|
D|----X-----X-----X-----X----| x2

Guitar 2

D|----77-5--55-3--55-3--55-22/3----|
A|----88-7--77-5--77-5--77-33/5----|
F|---------------------------------|
C|---------------------------------|
G|---------------------------------|
D|---------------------------------| x2

Chord before Chorus:

D|----3----|
A|----3----|
F|----0----|
C|----2----|
G|----3----|
D|----x----| x1

Chorus:

Guitar 1

D|----3-----3-----3---3---3---3----|
A|----3-----3-----3---3---3---3----|
F|----0-----0-----0---2---0---2----|
C|----0-----2-----2---0---2---0----|
G|----2-----3-----2---0---3---0----|
D|----3-----x-----x---x---x---x----| x2

Guitar 2

Apologies, but I don't have the ear to tab out Guitar 2 in the Chorus
I would recommend watching Youtube videos or something for this part.

Repeat Verse, PreChorus and Chorus in that order

After second Chorus

Bridge:

Guitar 1

D|----3-----3----|
A|----3-----3----|
F|----0-----0----|
C|----2-----2----|
G|----3-----2----|
D|----x-----x----| x4

Guitar 2

As you can see I'm not much of a lead guitarist
Again, I recommend watching videos for these parts, it does help when you break it down.

Repeat Chorus

End on

D|----3----|
A|----3----|
F|----0----|
C|----0----|
G|----2----|
D|----3----|
Show more