• Song:

    Monument

  • Artist:

    A Day To Remember

  • Album:

    For Those Who Have Hear...

Tune: Dropped C


I'm 100% sure that this is correct. but if you disagree, please comment me/correct me. 
Rate =D thanks


Intro.
D|----------------------------------------|
A|----------------------------------------|
F|7-7-7-(b9)-(b9)-(b9)-7-7-7-(b9)-(b9)-(b9)-(b9)-(b9)-(b9)--|    x2
C|(b9)(b9)(b9)10-10-10-(b9)(b9)(b9)10-10-10-10-10-10--|
G|----------------------------------------|
C|----------------------------------------|

D|-------------------------------------------------| 
A|-------------------------------------------------|  |
F|-------------------------------------------------|  |
C|3-3-3-3-3-3-3-3-3-3-3-3-5-5-5-5-5-5-5-5-5-5-5-5--|  |
G|3-3-3-3-3-3-3-3-3-3-3-3-5-5-5-5-5-5-5-5-5-5-5-5--|  |
C|3-3-3-3-3-3-3-3-3-3-3-3-5-5-5-5-5-5-5-5-5-5-5-5--|  |
                                                       x2
D|-----------------------------------------|          |
A|-----------------------------------------|          |
F|------(b9)-(b9)-(b9)-------7-7-7-7(b9)-(b9)-------|          |
C|------10-10-10-------(b9)(b9)(b9)9/10-10-10----|          |
G|7-7-7----------7-7-7---------------10 x16|          |
C|7-7-7----------7-7-7---------------10----|         /


Verse
D|--------------------------------------------------------------------------|
A|--------------------------------------------------------------------------|
F|--------------------------------------------------------------------------|
C|--------------------------------------------------------------------------|x2
G|333-333-3333333333-333-333-33333333777-777-77777777777-777-777-77777777777|
C|333-333-3333333333-333-333-33333333777-777-77777777777-777-777-77777777777|
PM..........................................................................

Chorus
D|-----------------------------------------------| 
A|-----------------------------------------------|  |
F|-----------------------------------------------|  |
C|3-3-3-3-3-3-3-3-3-3-3-3-5-5-5-5-5-5-5-5-5-5-5-5|  |
G|3-3-3-3-3-3-3-3-3-3-3-3-5-5-5-5-5-5-5-5-5-5-5-5|  |
C|3-3-3-3-3-3-3-3-3-3-3-3-5-5-5-5-5-5-5-5-5-5-5-5|  |
                                                     x2
D|-----------------------------------------|        |
A|-----------------------------------------|        |
F|------(b9)-(b9)-(b9)-------7-7-7-7(b9)-(b9)-------|        |
C|------10-10-10-------(b9)(b9)(b9)9/10-10-10----|        |
G|7-7-7----------7-7-7---------------10 x16|        |
C|7-7-7----------7-7-7---------------10----|       /

(let that A#5 chord ring out second time)

(right before the verse)
D|----|
A|----|
F|----|
C|----|
G|3333|
C|3333|
PM....

Verse 2
D|-----------------------------------------------|
A|-----------------------------------------------|
F|-----------------------------------------------|
C|3-3-3-3-3-3-3-3-3-3-3-3-7-7-7-7-7-7-7-7-7-7-7-7| x4
G|3-3-3-3-3-3-3-3-3-3-3-3-7-7-7-7-7-7-7-7-7-7-7-7|
C|3-3-3-3-3-3-3-3-3-3-3-3-7-7-7-7-7-7-7-7-7-7-7-7|

Chorus
D|-----------------------------------------------| 
A|-----------------------------------------------|  |
F|-----------------------------------------------|  |
C|3-3-3-3-3-3-3-3-3-3-3-3-5-5-5-5-5-5-5-5-5-5-5-5|  |
G|3-3-3-3-3-3-3-3-3-3-3-3-5-5-5-5-5-5-5-5-5-5-5-5|  |
C|3-3-3-3-3-3-3-3-3-3-3-3-5-5-5-5-5-5-5-5-5-5-5-5|  |
                                                     x2
D|-----------------------------------------|        |
A|-----------------------------------------|        |
F|------(b9)-(b9)-(b9)-------7-7-7-7(b9)-(b9)-------|        |
C|------10-10-10-------(b9)(b9)(b9)9/10-10-10----|        |
G|7-7-7----------7-7-7---------------10 x16|        |
C|7-7-7----------7-7-7---------------10----|       /

(right before the interlude)
D|---|
A|---|
F|---|
C|7~~|
G|5~~|
C|---|

Interlude
D|------------------------------------------------|--------------------------------|
A|------------------------------------------------|--------------------------------|
F|------------------------------------------------|--------------------------------|
C|777777777777799910101010101010101010101010101010|--------------------------------|
G|55555555555557778-8-8-8-8-8-8-8-8-8-8-8-8-8-8-8-|77777777777777775555555555555555|
C|------------------------------------------------|77777777777777775555555555555555|
  PM...............................................................................

D|------------------------------------------------|--------------------------------|
A|------------------------------------------------|--------------------------------|
F|------------------------------------------------|--------------------------------|
C|777777777777799910101010101010101010101010101010|--------------------------------|x2
G|55555555555557778-8-8-8-8-8-8-8-8-8-8-8-8-8-8-8-|77777777777777775555555555555555|
C|------------------------------------------------|77777777777777775555555555555555|

D|-----------------------------|--------------------------------|
A|-----------------------------|--------------------------------|
F|-----------------------------|--------------------------------|
C|777-777-7-9~101010-101010----|--------------------------------| x2
G|555-555-5-7~8-8-8--8-8-8-12\|77777777777777775555555555555555|
C|-------------------------12\|77777777777777775555555555555555|

Outro.[Let Chords Ring Out]
D|------------------------------|
A|------------------------------|
F|7----(b9)--10---(b9)---7-----5----|
C|x----x---x----x----x-----x----|
G|5----7---8----7----5-----3----|
C|------------------------------|
Show more