• Song:

    My Life For Hire

  • Artist:

    A Day To Remember

  • Album:

    Homesick (Special Editi...

Track 3
             E  E  E  E  E  E  E  E     E  E  E  E  E  E  E  E   
F||-------|--------------------------|--------------------------|
C||-------|--------------------------|--------------------------|
G||-------|--5--5--5--5--5--5--5--3--|--5--5--5--5--5--5--5--3--|
C||-------|--------------------------|--------------------------|


  E  E  E  E  E  E  E  E     E  E  E  E  E  E  E  E   
--------------------------|--------------------------|
--------------------------|--------------------------|
--1--1--1--1--1--1--1--1--|--1-----------------------|
--------------------------|-----5--5--5--5--5--5--5--|


  E  E  E  E  E  E  E  E     E  E  E  E  E  E  E  E   
--------------------------|--------------------------|
--------------------------|--------------------------|
--5--5--5--5--5--5--5--3--|--5--5--5--5--5--5--5--3--|
--------------------------|--------------------------|


  E  E  E  E  E  E  E  E     E  E  E  E  E  E  E  E   
--------------------------|--------------------------|
--------------------------|--------------------------|
--1--1--1--1--1--1--1--1--|--1-----------------------|
--------------------------|-----5--5--5--5--5--5--5--|


  E  E  E  S S E  E  E  E     E  S S E  E  S S S S S S S S  
---------------------------|-------------------------------|
---------------------------|-------------------------------|
---------------------------|-------------------------------|
--0--------0-0-0-----0-----|-----0-0-0-----0-0-0-0-0-0-0-0-|


  E  E  E  S S E  E  E  E     E  S S E  E  S S S S S S S S  
---------------------------|-------------------------------|
---------------------------|-------------------------------|
---------------------------|-------------------------------|
--8--------8-8-8-----5-----|-----5-5-5-----5-5-5-5-5-5-5-5-|


  E  E  E  S S E  E  E  E     E  S S E  E  S S S S S S S S  
---------------------------|-------------------------------|
---------------------------|-------------------------------|
---------------------------|-------------------------------|
--0--------0-0-0-----0-----|-----0-0-0-----0-0-0-0-0-0-0-0-|


  E  E  E  S S E  E  E  E     E  S S E  E  S S S S S S S S  
---------------------------|-------------------------------|
---------------------------|-------------------------------|
---------------------------|-------------------------------|
--8--------8-8-8-----5-----|-----5-5-5-----5-5-5-5-5-5-5-5-|


  E  E  E  E  E  E  E  E     E  E  E  E  E  E  E  E   
--------------------------|--------------------------|
--------------------------|--------------------------|
--------------------------|--------------------------|
--0-----0-----0--0--0--0--|--0-----0-----0--0--0--0--|


  E  E  E  E  E  E  E  E     E  E  E  E  E  E  E  E   
--------------------------|--------------------------|
--------------------------|--------------------------|
--------------------------|--------------------------|
--8-----8-----8--8--8--7--|--5-----5-----5--5--5--3--|


  E  E  E  E  E  E  E  E     E  E  E  E  E  E  E  E   
--------------------------|--------------------------|
--------------------------|--------------------------|
--------------------------|--------------------------|
--0-----0-----0--0--0--0--|--0-----0-----0--0--0--0--|


  E  E  E  E  E  E  E  E     E  E  E  E  E  E  E  E   
--------------------------|--------------------------|
--------------------------|--------------------------|
--------------------------|--------------------------|
--8-----8-----8--8--8--7--|--5-----5-----5--5--5--3--|


  E  E  E  E  E  E  E  E      E   E   E   E   E   E   E   E   
--------------------------|----------------------------------|
--------------------------|----------------------------------|
--------------------------|----------------------------------|
--8--8--8--8--8--8--8--8--|--10--10--10--10--10--10--10--10--|


   E   E   E   E   E   E   E   E      E   E   E   E   E   E   E   E   
----------------------------------|----------------------------------|
----------------------------------|----------------------------------|
----------------------------------|----------------------------------|
--12--12--12--12--12--12--12--12--|--15--15--15--15--15--15--15--15--|


  E  E  E  E  E  E  E  E      E  Q.      E  Q.        E  E  E  E  E  E  E  E   
--------------------------|------------------------|--------------------------|
--------------------------|------------------------|--------------------------|
--------------------------|------------------------|--------------------------|
--8--8--8--8--8--8--8--8--|--10---------11---------|--0--0--0--0--0--0--0--0--|


  E  E  E  E  E  E  E  E     E  E  E  E  E  E  E  E   
--------------------------|--------------------------|
--------------------------|--------------------------|
--------------------------|--------------------------|
--0--0--0--0--0--0--0--0--|--8--8--8--8--8--8--8--8--|


  E  E  E  E  E  E  E  E     E  E  E  E  E  E  E  E   
--------------------------|--------------------------|
--------------------------|--------------------------|
--------------------------|--------------------------|
--8--8--8--8--8--8--8--8--|--3--3--3--3--3--3--3--3--|


  E  E  E  E  E  E  E  E     E  E  E  E  E  E  E  E   
--------------------------|--------------------------|
--------------------------|--------------------------|
--------------------------|--------------------------|
--3--3--3--3--3--3--3--3--|--3--2--2--2--2--2--2--2--|


  E  E  E  E  E  E  E  E     E  E  H.                  
--------------------------|---------------------|-----|
--------------------------|---------------------|-----|
--------------------------|---------------------|-----|
--2--2--2--2--2--2--2--2--|--0------------------|-----|


  E  E  E  S S E  E  E  E     E  S S E  E  S S S S S S S S  
---------------------------|-------------------------------|
---------------------------|-------------------------------|
---------------------------|-------------------------------|
--0--------0-0-0-----0-----|-----0-0-0-----0-0-0-0-0-0-0-0-|


  E  E  E  S S E  E  E  E     E  S S E  E  S S S S S S S S  
---------------------------|-------------------------------|
---------------------------|-------------------------------|
---------------------------|-------------------------------|
--8--------8-8-8-----5-----|-----5-5-5-----5-5-5-5-5-5-5-5-|


  E  E  E  S S E  E  E  E     E  S S E  E  S S S S S S S S  
---------------------------|-------------------------------|
---------------------------|-------------------------------|
---------------------------|-------------------------------|
--0--------0-0-0-----0-----|-----0-0-0-----0-0-0-0-0-0-0-0-|


  E  E  E  S S E  E  E  E     E  S S E  E  S S S S S S S S  
---------------------------|-------------------------------|
---------------------------|-------------------------------|
---------------------------|-------------------------------|
--8--------8-8-8-----5-----|-----5-5-5-----5-5-5-5-5-5-5-5-|


  E  E  E  E  E  E  E  E     E  E  E  E  E  E  E  E   
--------------------------|--------------------------|
--------------------------|--------------------------|
--------------------------|--------------------------|
--0-----0-----0--0--0--0--|--0-----0-----0--0--0--0--|


  E  E  E  E  E  E  E  E     E  E  E  E  E  E  E  E   
--------------------------|--------------------------|
--------------------------|--------------------------|
--------------------------|--------------------------|
--8-----8-----8--8--8--7--|--5-----5-----5--5--5--3--|


  E  E  E  E  E  E  E  E     E  E  E  E  E  E  E  E   
--------------------------|--------------------------|
--------------------------|--------------------------|
--------------------------|--------------------------|
--0-----0-----0--0--0--0--|--0-----0-----0--0--0--0--|


  E  E  E  E  E  E  E  E     E  E  E  E  E  E  E  E   
--------------------------|--------------------------|
--------------------------|--------------------------|
--------------------------|--------------------------|
--8-----8-----8--8--8--7--|--5-----5-----5--5--5--3--|


  E  E  E  E  E  E  E  E      E   E   E   E   E   E   E   E   
--------------------------|----------------------------------|
--------------------------|----------------------------------|
--------------------------|----------------------------------|
--8--8--8--8--8--8--8--8--|--10--10--10--10--10--10--10--10--|


   E   E   E   E   E   E   E   E      E   E   E   E   E   E   E   E   
----------------------------------|----------------------------------|
----------------------------------|----------------------------------|
----------------------------------|----------------------------------|
--12--12--12--12--12--12--12--12--|--15--15--15--15--15--15--15--15--|


  E  E  E  E  E  E  E  E      E  Q.      E  Q.        E  E  E  E  E  E  E  E   
--------------------------|------------------------|--------------------------|
--------------------------|------------------------|--------------------------|
--------------------------|------------------------|--------------------------|
--8--8--8--8--8--8--8--8--|--10---------11---------|--0--0--0--0--0--0--0--0--|


  E  E  E  E  E  E  E  E     E  E  E  E  E  E  E  E   
--------------------------|--------------------------|
--------------------------|--------------------------|
--------------------------|--------------------------|
--0--0--0--0--0--0--0--0--|--8--8--8--8--8--8--8--8--|


  E  E  E  E  E  E  E  E     E  E  E  E  E  E  E  E   
--------------------------|--------------------------|
--------------------------|--------------------------|
--------------------------|--------------------------|
--8--8--8--8--8--8--8--8--|--3--3--3--3--3--3--3--3--|


  E  E  E  E  E  E  E  E     E  E  E  E  E  E  E  E   
--------------------------|--------------------------|
--------------------------|--------------------------|
--------------------------|--------------------------|
--3--3--3--3--3--3--3--3--|--3--2--2--2--2--2--2--2--|


  E  E  E  E  E  E  E  E     E  E  E  E  E  E  E  E   
--------------------------|--------------------------|
--------------------------|--------------------------|
--------------------------|--------------------------|
--2--2--2--2--2--2--2--2--|--0--0--0--0--0--0--0--0--|


  E  E  E  E  E  E  E  E     E  E  E  E  E  E  E  E   
--------------------------|--------------------------|
--------------------------|--------------------------|
--------------------------|--------------------------|
--0--0--0--0--0--0--0--0--|--8--8--8--8--8--8--8--8--|


  E  E  E  E  E  E  E  E     E  E  E  E  E  E  E  E   
--------------------------|--------------------------|
--------------------------|--------------------------|
--------------------------|--------------------------|
--8--8--8--8--8--8--8--8--|--3--3--3--3--3--3--3--3--|


  E  E  E  E  E  E  E  E     E  E  E  E  E  E  E  E   
--------------------------|--------------------------|
--------------------------|--------------------------|
--------------------------|--------------------------|
--3--3--3--3--3--3--3--3--|--3--2--2--2--2--2--2--2--|


  E  E  E  E  E  E  E  E     W                                   
--------------------------|-------------------|-----|-----|-----|
--------------------------|-------------------|-----|-----|-----|
--------------------------|-------------------|-----|-----|-----|
--2--2--2--2--2--2--2--2--|--0----------------|-----|-----|-----|


  E  E  E  S S E  S S E  E     E  S S E  S S E  E  E  E   
----------------------------|----------------------------|
----------------------------|----------------------------|
----------------------------|----------------------------|
--0--------0-0-0--0-0-0-----|-----0-0-0--0-0-0--0--0--0--|


  E  E  E  S S E  S S E  E           Q.     S S E  S S Q     
----------------------------|-----|-------------------------|
----------------------------|-----|-------------------------|
----------------------------|-----|-------------------------|
--0--------0-0-0--0-0-0-----|-----|--0------0-0-0--0-0-0----|


  E  S S E  S S E  E  E  E     Q.     S S E  S S Q     
----------------------------|-------------------------|
----------------------------|-------------------------|
----------------------------|-------------------------|
--L--0-0-0--0-0-0--0--0--0--|--0------0-0-0--0-0-0----|


  E  S S E  S S E  E  E  E     Q.     S S E  S S Q     
----------------------------|-------------------------|
----------------------------|-------------------------|
----------------------------|-------------------------|
--L--0-0-0--0-0-0--0--0--0--|--0------0-0-0--0-0-0----|


  E  S S E  S S E  E  E  E     Q.     S S E  S S Q     
----------------------------|-------------------------|
----------------------------|-------------------------|
----------------------------|-------------------------|
--L--0-0-0--0-0-0--0--0--0--|--0------0-0-0--0-0-0----|


  E  S S E  S S E  E  E  E     E  E  E  E  E  E  E  E   
----------------------------|--------------------------|
----------------------------|--------------------------|
----------------------------|--------------------------|
--L--0-0-0--0-0-0--0--0--0--|--0--------0--------0-----|


  E  E  E  E  S S S S S S S S    E  E  E  E  E  E  E  E   
------------------------------|--------------------------|
------------------------------|--------------------------|
------------------------------|--------------------------|
-----0--------0-0-0-0-0-0-0-0-|--0--------0--------0-----|


  E  E  E  E  S S S S S S S S    Q.     S S E  S S Q     
------------------------------|-------------------------|
------------------------------|-------------------------|
------------------------------|-------------------------|
-----0--------0-0-0-0-0-0-0-0-|--0------0-0-0--0-0-0----|


  E  S S E  S S E  E  E  E     Q.     S S E  S S Q     
----------------------------|-------------------------|
----------------------------|-------------------------|
----------------------------|-------------------------|
--L--0-0-0--0-0-0--0--0--0--|--0------0-0-0--0-0-0----|


  E  S S E  S S E  E  E  E     W                    E  Q.      H         
----------------------------|-------------------|-----------------------|
----------------------------|-------------------|-----------------------|
----------------------------|-------------------|-----------------------|
--L--0-0-0--0-0-0--0--0--0--|--8----------------|--10---------11--------|


  E  E  E  E  E  E  E  E     E  E  E  E  E  E  E  E   
--------------------------|--------------------------|
--------------------------|--------------------------|
--------------------------|--------------------------|
--0--0--0--0--0--0--0--0--|--0--0--0--0--0--0--0--0--|


  E  E  E  E  E  E  E  E     E  E  E  E  E  E  E  E   
--------------------------|--------------------------|
--------------------------|--------------------------|
--------------------------|--------------------------|
--8--8--8--8--8--8--8--8--|--8--8--8--8--8--8--8--8--|


  E  E  E  E  E  E  E  E     E  E  E  E  E  E  E  E   
--------------------------|--------------------------|
--------------------------|--------------------------|
--------------------------|--------------------------|
--3--3--3--3--3--3--3--3--|--3--3--3--3--3--3--3--3--|


  E  E  E  E  E  E  E  E     E  E  E  E  E  E  E  E   
--------------------------|--------------------------|
--------------------------|--------------------------|
--------------------------|--------------------------|
--3--2--2--2--2--2--2--2--|--2--2--2--2--2--2--2--2--|


  E  E  E  E  E  E  E  E     E  E  E  E  E  E  E  E   
--------------------------|--------------------------|
--------------------------|--------------------------|
--------------------------|--------------------------|
--0--0--0--0--0--0--0--0--|--0--0--0--0--0--0--0--0--|


  E  E  E  E  E  E  E  E     E  E  E  E  E  E  E  E   
--------------------------|--------------------------|
--------------------------|--------------------------|
--------------------------|--------------------------|
--8--8--8--8--8--8--8--8--|--8--8--8--8--8--8--8--8--|


  E  E  E  E  E  E  E  E     E  E  E  E  E  E  E  E   
--------------------------|--------------------------|
--------------------------|--------------------------|
--------------------------|--------------------------|
--3--3--3--3--3--3--3--3--|--3--3--3--3--3--3--3--3--|


  E  E  E  E  E  E  E  E     E  E  E  E  E  E  E  E   
--------------------------|--------------------------|
--------------------------|--------------------------|
--------------------------|--------------------------|
--3--2--2--2--2--2--2--2--|--2--2--2--2--2--2--2--2--|


  E  E  E  E  E  E  E  E      E   E   E   E   E   E   E   E   
--------------------------|----------------------------------|
--------------------------|----------------------------------|
--------------------------|----------------------------------|
--8--8--8--8--8--8--8--8--|--10--10--10--10--10--10--10--10--|


   E   E   E   E   E   E   E   E      E   E   E   E   E   E   E   E   
----------------------------------|----------------------------------|
----------------------------------|----------------------------------|
----------------------------------|----------------------------------|
--12--12--12--12--12--12--12--12--|--15--15--15--15--15--15--15--15--|


  E  E  E  E  E  E  E  E      E  Q.     E  Q.       
--------------------------|-----------------------||
--------------------------|-----------------------||
--------------------------|-----------------------||
--8--8--8--8--8--8--8--8--|--10-------------------||




Duration Legend
---------------
W - whole
H - half
Q - quarter
E - 8th
S - 16th
T - 32nd
X - 64th
. - note dotted
|-n-|  - n-tuplets


Tablature Legend
----------------
L - tied note
x - dead note
g - grace note
(n) - ghost note
> - accentuded note
NH - natural harmonic
AH - artificial harmonic
TH - tapped harmonic
SH - semi harmonic
PH - pitch harmonic
h - hammer on
p - pull off
b - bend
br - bendRelease
pb - preBend
pbr - preBendRelease
brb - bendReleaseBend
\n/ - tremolo bar dip
\n - tremolo bar dive
-/n - tremolo bar Release up
/n\ - tremolo bar inverted dip
/n - tremolo bar return
-\n - tremolo bar Release down
S - shift slide
s - legato slide
/ -  slide into from below or out of upwards
\ -  slide into from above or out of downwards
~ - vibrato
W - wide vibrato
tr - trill
TP - tremolo picking
T - tapping
S - slap
P - pop
< - fade in
^ - brush up
v - brush down
Show more