• Song:

    Nj Legion Iced Tea Acoustic

  • Artist:

    A Day To Remember

NJ Legion Iced Tea - A Day To Remember

Intro 1

E  | -------------------3--3-3-0-0-0--- | 
B  | ----0--0-0-1--1-1--1--1-1-1-1-1--- | 
G  | ----0--0-0-0--0-0--0--0-0-0-0-0--- | 
D  | ---------------------------------- | 
A  | ---------------------------------- | 
E  | ---------------------------------- | 

Intro 2/Chorus
            A5        F5                    C5        G5
E  | --0--0-0--0-0-0-0--3--3-3-0-0-0--0--0-0-0-0-0-0--1--1-1-0-0-0---- | 
B  | --0--0-0--1-1-1-1--1--1-1-1-1-1--0--0-0-1-1-1-1--0--0-0-0-0-0---- | 
G  | --2--2-2--2-2-2-2--2--2-2-2-2-2--0--0-0-0-0-0-0--0--0-0-0-0-0---- | 
D  | --2--2-2--2-2-2-2--3--3-3-3-3-3--2--2-2-2-2-2-2--0--0-0-0-0-0---- | 
A  | --0--0-0--0-0-0-0----------------3--3-3-3-3-3-3--2--2-2-2-2-2---- | 
E  | -------------------------------------------------3--3-3-3-3-3---- | 

Intro 1
Intro 2 (x2)

Verse
C5
Get up, get out, this is your wake up call, 
                                       A5              F5
We run this town and you cant fight us all, We keep on coming back for more, 
C5
And dont think that you can hold us down, 
                               F5           G5
We will tear this building down, try to be careful what you say

PreChorus
A5                             G5
Give it up, your tact is astounding, 
                                       D5            F5            G5
Find your place and leave us with some peace of mind, you do this every time

Intro 1

Chorus
(You can play the Intro 2 for the Chorus or you can just play the chords)

A5                  F5                  C5 
So heres to another better year, we've crossed that thin line, 
            G5       
Dont try to hold us here, 
       A5                  F5                         C5          G5
If for just this once youd think of us, I hope youre happy with yourself, 

Verse2
C5
Get up, get out, who's gonna break your fall? When we don't back down,
                     A5                F5
theyre gonna seem so small, we keep em running for the door, 
C5 
Just when things will come back around, Its too late for them , 
                              F5                  G5
theyre heading straight for a meltdown, Im not a part of your clich?, 

PreChorus
A5                             G5
Give it up, your tact is astounding, 
                                       D5            F5            G5
Find your place and leave us with some peace of mind, you do this every time

Intro 1
E  | -------------------3--3-3-0-0-0--- | 
B  | ----0--0-0-1--1-1--1--1-1-1-1-1--- | 
G  | ----0--0-0-0--0-0--0--0-0-0-0-0--- | 
D  | ---------------------------------- | 
A  | ---------------------------------- | 
E  | ---------------------------------- | 

Chorus
A5                  F5                 C5 
So heres to another better year, weve crossed that thin line, 
            G5       
Dont try to hold us here, 
       A5                  F5                         C5          G5
If for just this once youd think of us, I hope youre happy with yourself (x2) 

Bridge
D5                                      F5
Just think about, just think about everything, 
                    A5   G5   F5
Be careful what you say, run away
D5                                     
This is the life we chose, this is the life I lead, 
F5          
They can never take this from me 
A5                       G5                         F5
This is the life we chose, this is the life I lead, 
         
They can never take this from me  

Breakdown
C5

Intro 1

Chorus (x2)

Third (last) Chorus
A5                  F5                         C5          G5          C5
So heres to another better year, I hope youre happy with yourself
Show more