• Song:

    Welcome To The Family

  • Artist:

    A Day To Remember

  • Album:

    Homesick (Special Editi...

A DAY TO REMEMBER         -             WELCOME TO THE FAMILY  
INTRO
|---------------------------------------------------------|
|---------------------------------------------------------|
|--5~-------------8~---7~---8~------------12~---10~-------|
|---------------------------------------------------------|

VERSE   x2
|------------------------------------------------------------|
|------------------------------------------------------------|
|---------------------------------------12/10--10/8---7/8----|
|--0-0--000--0-0--000--0-0--0000-----------------------------|

PT. 2   x2
|-------------------------------------------------------|
|-------------------------------------------------------|
|------7-8----4-7------7-10p7-----7-8----4--------------|
|--00---0--00--0---00---0-------00-0--00---8888-5555----|

CHORUS   x2
|-------------------------------------------------------------------------|
|-------------------------------------------------------------------------|
|-----------------------------------------------------3333333333333333----|
|--8888888888888888-0000000000000000-3333333333333333---------------------|

pause.
VERSE    x2
PT. 2   x2
CHORUS   x2

BREAKDOWN INTRO
zeros in a rhythm i cant tab right.

BREAKDOWN
|------------------------------------------------------------------|
|------------------------------------------------------------------|
|--------------------------------------------------------MOVE!!----|
|--000000--00-00--0000-00--000000--00--0000000000------------------|

|-------------------------------------------------------------|
|---------------------------------------------------------0~~~|
|---------------------------------------------------------0~~~|
|--000000~~00~00~~0000~00~~000000~~00~~0000000000000000---0~~~|

CHORUS   x2
THEN END ON 
|-----------|
|--0~~~*----|
|--0~~~*----|
|--0~~~*----|


TABBED BY LURKNASTY
Show more