• Song:

    When 3s A Crowd

  • Artist:

    A Day To Remember

Tuning in Drop D (DADF#AD)
v - Downstroke
^ - Upstroke

84% Sure this is correct.

D-------7-----7----5----4--2/4-0-----------------------|
A-------5-5-5---5-5--5-5-5-----------------------------|
F#------0----------------------------------------------|
D-------0------------------------2-2-2---5-5-5-5-5-5-5-|    Then You repeat.
A-------0------------------------2-2-2---5-5-5-5-5-5-5-|
D-------0------------------------2-2-2---5-5-5-5-5-5-5-|
        v                        v ^ v   v ^ v V ^ v ^

The Verse/Pre-Chorus/Chorus is the same chords with different strumming patterns.

D---------------|
A---------------|
F#--------------|
D----0--2--5----|
A----0--2--5----|
D----0--2--5----|

Bridge
(So here we are again, in the same situation)

D----------|
A----------|
F#---------|
D---1--5---|
A---1--5---|
D---2--5---|

(Screaming at the top of my lungs)
D--------------------------------------|
A--------------------------------------|
F#-------------------------------------|
D---1---7---5--------------------------|
A---1---7---5--------------------------|
D---2---7---5--------------------------|
          (And You're not saying a word)


Yeeeep, that's pretty much it.

Questions? PohlmanAnthony@yahoo.com
Show more