• Song:

    You Be Tails Ill Be Sonic

  • Artist:

    A Day To Remember

Intro:

(0:06)
E|------------------------------------------------------------------|
B|------------------------------------------------------------------|
G|------------------------------------------------------------------|
D|------------------------------------------------------------------|
A|-0-0-0---0---0-0-0---0---0-0-0----0---0-0-0---0---0-0-0-0-0-0-0-0-|
D|-0-0-0---0---0-0-0---0---0-0-0----0---0-0-0---0---0-0-0-0-0-0-0-0-|

E|----------------------------------------------------------------|
B|----------------------------------------------------------------|
G|----------------------------------------------------------------|
D|----------------------------------------------------------------|
A|-0-0-0---0---0-0-0---0---0-0-0----0-0-8---8---0-0-7---7---0-0-7-|
D|-0-0-0---0---0-0-0---0---0-0-0----0-0-8---8---0-0-7---7---0-0-7-|

E|-----------------------------------------------------------------|
B|-----------------------------------------------------------------|
G|-----------------------------------------------------------------|
D|-----------------------------------------------------------------|
A|-0-0-0---0---0-0-0---0---0-0-0---0---0-0-0---0---0-0-0-0-0-0-0-0-|
D|-0-0-0---0---0-0-0---0---0-0-0---0---0-0-0---0---0-0-0-0-0-0-0-0-|

E|----------------------------------------------------------------|
B|----------------------------------------------------------------|
G|----------------------------------------------------------------|
D|----------------------------------------------------------------|
A|-0-0-0---0---0-0-0---0---0-0-0----0-0-8---8---0-0-7---7---0-0-7-|
D|-0-0-0---0---0-0-0---0---0-0-0----0-0-8---8---0-0-7---7---0-0-7-|

E|------------------------------------------------------------------|
B|------------------------------------------------------------------|
G|------------------------------------------------------------------|
D|------------------------------------------------------------------|
A|------------------------------------------------------------------|
D|-0-0-0---0---0-0-0---0---0-0-0----0---0-0-0---0---0-0-0-0-0-0-0-0-|

E|----------------------------------------------------------------|
B|----------------------------------------------------------------|
G|----------------------------------------------------------------|
D|----------------------------------------------------------------|
A|-0-0-8---8---0-0-7---7---0-0-7----0-0-0---0---0-0-0---0---0-0-0-|
D|-0-0-8---8---0-0-7---7---0-0-7----0-0-0---0---0-0-0---0---0-0-0-|

E|-----------------------------------------------------------------|
B|-----------------------------------------------------------------|
G|-----------------------------------------------------------------|
D|-----------------------------------------------------------------|
A|-0---0-0-0---0---0-0-0-0-0-0-0-0---0-0-0---0---0-0-0---0---0-0-0-|
D|-0---0-0-0---0---0-0-0-0-0-0-0-0---0-0-0---0---0-0-0---0---0-0-0-|

                                 Pr?-Refr?o:

E|-------------------------------|----------------------------------|
B|-------------------------------|----------------------------------|
G|-------------------------------|----------------------------------|
D|-------------------------------|----------------------------------|
A|-0-0-8---8---0-0-7---7---0-0-7-|--8-8-8-8-8-8-8-7---7-7-7-7-7-7-7-|
D|-0-0-8---8---0-0-7---7---0-0-7-|--8-8-8-8-8-8-8-7---7-7-7-7-7-7-7-|

E|-----------------------------------------------------------|
B|-----------------------------------------------------------|
G|-----------------------------------------------------------|
D|-----------------------------------------------------------|
A|-0-0-0-0-0-0-0-3-3-3-3-3-3-3-3---8-8-8-8-8-8-8-7---7-7-7-7-|
D|-0-0-0-0-0-0-0-3-3-3-3-3-3-3-3---8-8-8-8-8-8-8-7---7-7-7-7-|

Refr?o:

E|-------------------------------------------------------------------|
B|-------------------------------------------------------------------|
G|-------------------------------------------------------------------|
D|-------------------------------------------------------------------|
A|-0-0-0-0-0-0-0-8---8-8-8-8-8-8-8-3---3-3-3-3-3-3-7-7-7-7-7-7-7-7-7-|
D|-0-0-0-0-0-0-0-8---8-8-8-8-8-8-8-3---3-3-3-3-3-3-7-7-7-7-7-7-7-7-7-|

E|-----------------------------------------------------------------------|
B|-----------------------------------------------------------------------|
F|-----------------------------------------------------------------------|
D|-----------------------------------------------------------------------|
A|-0-0-0-0-0-0-0-8---8-8-8-8-8-8-8-3---3-3-3-3-3-3-3-7---7-7-7-7-7-7-7-7-|
D|-0-0-0-0-0-0-0-8---8-8-8-8-8-8-8-3---3-3-3-3-3-3-3-7---7-7-7-7-7-7-7-7-|

E|-----------------------------------------------------------------|
B|-----------------------------------------------------------------|
G|-----------------------------------------------------------------|
D|-----------------------------------------------------------------|
A|-8---8-8-8-8-8-3-3-3-3-3-3-3-3---10-10-10-10-10-10-10-0---0-0-10-|
D|-8---8-8-8-8-8-3-3-3-3-3-3-3-3---10-10-10-10-10-10-10-0---0-0-10-|

E|-----------------------------------------------------------|
B|-----------------------------------------------------------|
G|-----------------------------------------------------------|
D|-----------------------------------------------------------|
A|-10-10-10---8-8-8-8-8-8-8-7---7-7-7-3-3-3-3---/-Pickslide--|
D|-10-10-10---8-8-8-8-8-8-8-7---7-7-7-3-3-3-3---/-Pickslide--|

Verso 2:

E|-----------------------------------------------------------------|
B|-----------------------------------------------------------------|
G|-----------------------------------------------------------------|
D|-----------------------------------------------------------------|
A|-0-0-0---0---0-0-0---0---0-0-0---0---0-0-0---0---0-0-0-0-0-0-0-0-|
D|-0-0-0---0---0-0-0---0---0-0-0---0---0-0-0---0---0-0-0-0-0-0-0-0-|

E|----------------------------------------------------------------|
B|----------------------------------------------------------------|
G|----------------------------------------------------------------|
D|----------------------------------------------------------------|
A|-0-0-0---0---0-0-0---0---0-0-0----0-0-8---8---0-0-7---7---0-0-7-|
D|-0-0-0---0---0-0-0---0---0-0-0----0-0-8---8---0-0-7---7---0-0-7-|

E|------------------------------------------------------------------|
B|------------------------------------------------------------------|
G|------------------------------------------------------------------|
D|------------------------------------------------------------------|
A|-0-0-0---0---0-0-0---0---0-0-0----0---0-0-0---0---0-0-0-0-0-0-0-0-|
D|-0-0-0---0---0-0-0---0---0-0-0----0---0-0-0---0---0-0-0-0-0-0-0-0-|

E|----------------------------------------------------------------|
B|----------------------------------------------------------------|
G|----------------------------------------------------------------|
D|----------------------------------------------------------------|
A|-0-0-0---0---0-0-0---0---0-0-0----0-0-8---8---0-0-7---7---0-0-7-|
D|-0-0-0---0---0-0-0---0---0-0-0----0-0-8---8---0-0-7---7---0-0-7-|

E|---------------------------------------------------------|
B|---------------------------------------------------------|
G|---------------------------------------------------------|
D|---------------------------------------------------------|
A|-0---0-0-0-0-0-0-0---0-0-0-0-0-0---0---------------------|
D|-0---0-0-0-0-0-0-0---0-0-0-0-0-0---0---0-0-0---0---0-0-0-|

E|------------------------------------------------------------------------|
B|------------------------------------------------------------------------|
G|------------------------------------------------------------------------|
D|------------------------------------------------------------------------|
A|-0---0-0-0-0-0-0-0---0-0-0-0-0-0---0----0---0-0-0-0-0-0-0---0-0-0-0-0-0-|
D|-0---0-0-0-0-0-0-0---0-0-0-0-0-0---0----0---0-0-0-0-0-0-0---0-0-0-0-0-0-|

E|-----------------------------------------------------------|
B|-----------------------------------------------------------|
G|-----------------------------------------------------------|
D|-----------------------------------------------------------|
A|-0-------0---0-0-0-0-0-0-0---0-0-0-0-0-0---0---/-Pickslide-|
D|-0-0-0---0---0-0-0-0-0-0-0---0-0-0-0-0-0---0---/-Pickslide-|

Pr?-Refr?o:

E|-------------------------------------------------------------------|
B|-------------------------------------------------------------------|
G|-------------------------------------------------------------------|
D|-------------------------------------------------------------------|
A|-8-8-8-8-8-8-8-7---7-7-7-7-7-7-7---0-0-0-0-0-0-0-3---3-3-3-3-3-3-3-|
D|-8-8-8-8-8-8-8-7---7-7-7-7-7-7-7---0-0-0-0-0-0-0-3---3-3-3-3-3-3-3-|

E|---------------------------------------------------------------------|
B|---------------------------------------------------------------------|
G|---------------------------------------------------------------------|
D|---------------------------------------------------------------------|
A|-8-8-8-8-8-8-8-7---7-7-7-7-7-7-7---0-0-0-0-0-0-0-8---8-8-8-8-8-8-8-3-|
D|-8-8-8-8-8-8-8-7---7-7-7-7-7-7-7---0-0-0-0-0-0-0-8---8-8-8-8-8-8-8-3-|

E|--------------------------------------------------------------------|
B|--------------------------------------------------------------------|
G|--------------------------------------------------------------------|
D|--------------------------------------------------------------------|
A|-3-3-3-3-3-3-3-7--7-7-7-7-7-7-7-7--0-0-0-0-0-0-0-8--8-8-8-8-8-8-8-3-|
D|-3-3-3-3-3-3-3-7--7-7-7-7-7-7-7-7--0-0-0-0-0-0-0-8--8-8-8-8-8-8-8-3-|

                                     Refr?o:

E|----------------------------------|-----------------------------------|
B|----------------------------------|-----------------------------------|
G|----------------------------------|-----------------------------------|
D|----------------------------------|-----------------------------------|
A|-3-3-3-3-3-3-3-7--7-7-7-7-7-7-7-7-|-8--8-8-8-8-8-8-8-3--3-3-3-3-3-3-3-|
D|-3-3-3-3-3-3-3-7--7-7-7-7-7-7-7-7-|-8--8-8-8-8-8-8-8-3--3-3-3-3-3-3-3-|

E|-----------------------------------------------------------------------|
B|-----------------------------------------------------------------------|
G|-----------------------------------------------------------------------|
D|-----------------------------------------------------------------------|
A|-10-10-10-10-10-10-10--0-0-10--10-10-10--8-8-8-8-8-8-8-7--7-7-7-3-3-3--|
D|-10-10-10-10-10-10-10--0-0-10--10-10-10--8-8-8-8-8-8-8-7--7-7-7-3-3-3-7|

E|------------------------------------------------------------|
B|------------------------------------------------------------|
G|------------------------------------------------------------|
D|------------------------------------------------------------|
A|------------------------------------------------------------|
D|-0-0-0--0-0-0--0-0-0--0-0---0--0-0-0--0-0-0--8--0--7--0-0-0-|

E|---------------------------------------------------------------|
B|---------------------------------------------------------------|
G|---------------------------------------------------------------|
D|---------------------------------------------------------------|
A|-4------1------1--4--------------------------------------------|
D|-4--0-0-1--0-0-1--4--0--7---0-0-0--0-0-0--0-0-0--0-0--0--0-0-0-|

                                   Ponte:

E|---------------------------------|---------------------------------|
B|---------------------------------|---------------------------------|
G|---------------------------------|---------------------------------|
D|---------------------------------|---------------------------------|
A|----------------------------1--4-|--1-0-0-0--0-0-0---0-0-0-5-0-0-6-|
D|-8--0--7--0-0-0--0-0-0--0-0-1--4-|--1-0-0-0--0-0-0---0-0-0---0-0---|

E|---------------------------------------------------------------|
B|---------------------------------------------------------------|
G|---------------------------------------------------------------|
D|---------------------------------------------------------------|
A|-6-0-0-0--0-0-0--0-0-0-1-0-0-4--4-0-0-0--0-0-0---0-0-0-5-0-0-6-|
D|---0-0-0--0-0-0--0-0-0-1-0-0-4--4-0-0-0--0-0-0---0-0-0---0-0---|

E|--------------------------------------------------------------|
B|--------------------------------------------------------------|
G|--------------------------------------------------------------|
D|--------------------------------------------------------------|
A|-6-0-0-0--0-0-0---0-0-0-1-0-0-4--0-0-0--0--0-0-0--0--0-0-0--0-|
D|---0-0-0--0-0-0---0-0-0-1-0-0-4--0-0-0--0--0-0-0--0--0-0-0--0-|

E|---------------------------------------------------------------|
B|---------------------------------------------------------------|
G|---------------------------------------------------------------|
D|---------------------------------------------------------------|
A|-0-0-0--0--0-0--0-0--0-0---0-0-0--0--0-0-0--0--0-0-0--0-0-8--8-|
D|-0-0-0--0--0-0--0-0--0-0---0-0-0--0--0-0-0--0--0-0-0--0-0-8--8-|

E|-----------------------------------------------------------|
B|-----------------------------------------------------------|
G|-----------------------------------------------------------|
D|-----------------------------------------------------------|
A|-0-0-7--7--0-0-7---0-0-0--0--0-0-0--0--0-0-0---0--0-0-0--0-|
D|-0-0-7--7--0-0-7---0-0-0--0--0-0-0--0--0-0-0---0--0-0-0--0-|

E|--------------------------------------------------------------|
B|--------------------------------------------------------------|
G|--------------------------------------------------------------|
D|--------------------------------------------------------------|
A|-0-0-0-0-0-0-0-0--0-0-0--0--0-0-0--0--0-0-0---0-0-8--8--0-0-7-|
D|-0-0-0-0-0-0-0-0--0-0-0--0--0-0-0--0--0-0-0---0-0-8--8--0-0-7-|

E|------------------------------------------------------|
B|------------------------------------------------------|
G|------------------------------------------------------|
D|------------------------------------------------------|
A|-7--0-0-7---0---8-|--3-3-3-3-3-3-3-7--7-7-7-7-7-7-7-7-|
D|-7--0-0-7---0---8-|--3-3-3-3-3-3-3-7--7-7-7-7-7-7-7-7-|

E|--------------------------------------------------------------------|
B|--------------------------------------------------------------------|
G|--------------------------------------------------------------------|
D|--------------------------------------------------------------------|
A|-0-0-0-0-0-0-0-8--8-8-8-8-8-8-8-3--3-3-3-3-3-3-3-7--7-7-7-7-7-7-7-7-|
D|-0-0-0-0-0-0-0-8--8-8-8-8-8-8-8-3--3-3-3-3-3-3-3-7--7-7-7-7-7-7-7-7-|

E|------------------------------------------------------------|
B|------------------------------------------------------------|
G|------------------------------------------------------------|
D|------------------------------------------------------------|
A|-8--8-8-8-8-8-8-8-3--3-3-3-3-3-3-3--10-10-10-10-10-10-10--0-|
D|-8--8-8-8-8-8-8-8-3--3-3-3-3-3-3-3--10-10-10-10-10-10-10--0-|

E|--------------------------------------------------------|
B|--------------------------------------------------------|
G|--------------------------------------------------------|
D|--------------------------------------------------------|
A|-0--0--x--x--10--10--10--8-8-8-8-8-8-8-7--7-7-7-3-3-3-3-|
D|-0--0--x--x--10--10--10--8-8-8-8-8-8-8-7--7-7-7-3-3-3-3-|

E|--------------------------------------------------------------------|
B|--------------------------------------------------------------------|
G|--------------------------------------------------------------------|
D|--------------------------------------------------------------------|
A|-0-0-0-0-0-0-0-0--8-8-8-8-8-8-8-8--3-3-3-3-3-3-3-3--7-7-7-7-7-7-7-7-|
D|-0-0-0-0-0-0-0-0--8-8-8-8-8-8-8-8--3-3-3-3-3-3-3-3--7-7-7-7-7-7-7-7-|

E|------------------------------------------------------------------|
B|------------------------------------------------------------------|
G|------------------------------------------------------------------|
D|------------------------------------------------------------------|
A|-0-0-0-0-0-0-0-0--8-8-8-8-8-8-8-8--3-3-3-3-3-3-3-3--7-7-7-7-7-7-7-|
D|-0-0-0-0-0-0-0-0--8-8-8-8-8-8-8-8--3-3-3-3-3-3-3-3--7-7-7-7-7-7-7-|

E|---------------------------------------------------|
B|---------------------------------------------------|
G|---------------------------------------------------|
D|---------------------------------------------------|
A|-0-0-0-0-0-0-0-0--8-8-8-8-8-8-8-8--3-3-3-3-3-3-3-3-|
D|-0-0-0-0-0-0-0-0--8-8-8-8-8-8-8-8--3-3-3-3-3-3-3-3-|

E|--------------------|
B|--------------------|
G|--------------------|
D|------------------3-|
A|-7-7-7-7-7-7-7-7--0-|
D|-7-7-7-7-7-7-7-7--0-|
Show more