Tabbed By Ben H (PunkAsPhuck)

verse
e---------------------------- 
B---------------------------- 
G--5-5--5--------5-5--5------ 
D--5-5--5-3-3--3-5-5--5-3-3-- 
A--3-3--3-3-3--3-3-3--3-3-3-- 
E---------1-1--1--------1-1-- 

chorus
e-------------------------------------------------------- 
B-------------------------------------------------------- 
G--8-8--8--------8-8--8--------8-8--8--------8-8--8------ 
D--8-8--8-7-7--7-8-8--8-7-7--7-8-8--8-7-7--7-8-8--8-7-7-- 
A--6-6--6-7-7--7-6-6--6-7-7--7-6-6--6-7-7--7-6-6--6-7-7-- 
E---------5-5--5--------5-5--5--------5-5--5--------5-5-- 

verse
e--------------------------------------------------------- 
B--------------------------------------------------------- 
G--5-5--5--------5-5--5--------5-5--5--------5-5--5------- 
D--5-5--5-3-3--3-5-5--5-3-3--3-5-5--5-3-3--3-5-5--5-3-3--- 
A--3-3--3-3-3--3-3-3--3-3-3--3-3-3--3-3-3--3-3-3--3-3-3--- 
E---------1-1--1--------1-1--1--------1-1--1--------1-1--- 

chorus 
e------------------------------------------------------------ 
B------------------------------------------------------------ 
G--8-8--8--------8-8--8--------8-8--8--------8-8--8---------- 
D--8-8--8-7-7--7-8-8--8-7-7--7-8-8--8-7-7--7-8-8--8-7-7-7-7-- 
A--6-6--6-7-7--7-6-6--6-7-7--7-6-6--6-7-7--7-6-6--6-7-7-7-7-- 
E---------5-5--5--------5-5--5--------5-5--5--------5-5-5-5--
Show more