Legend:
PM - Palm Mute.
* - Mute Strings.
o - Open Strings.
<7> - Denotes Harmonics.
~ - Let Notes Ring.


Guitar 1 (Pete Weiland)

(0:00)
This is the way Pete actually plays it:
E|------------------------------------------------|
B|--------------------------------------------<7>-|
G|----0-----0-----0-----0-----0-----0-----0---<7>-|
D|--5-----12----2-----(b9)----0-----0-----4---0-----|
A|7-----14----3-----10----2-----(b9)----5-----------|
E|------------------------------------------------|

But if you want an easier alternative that moves less around the fretboard:
E|------------------------------------------------|
B|--------------------------------------------<7>-|
G|----0-----0-----0-----0-----0-----0-----0---<7>-|
D|--------12----------(b9)----0-----0---------0-----|
A|--10--14------7---10----------(b9)------(b9)--------|
E|12----------8-----------7-----------10----------|x1



(0:05)
E|------------------------------------------------|
B|------------------------------------------------|
G|0-0---0--0----0-0---0--0----0-0---0-0---0-0-0-0-|
D|5-5---12-12---2-2---(b9)-(b9)---0-0---0-0---4-4-4h5-|
A|7-7---14-14---3-3---10-10---2-2---(b9)(b9)--5-5-5-5-|
E|------------------------------------------------|x4



(0:25)
E|------------------------------------------------|
B|----------------------------------------------0-|
G|0-0-0-0-0---0-0-0-0-0---0-0-0-0-0-------0-------|
D|5-5-5-4-4---0-0-0-2-2---5-5-5-4-4-----0-----2---|
A|7-7-7-5-5---2-2-2-3-3---7-7-7-5-5---2-----3-----|
E|------------------------------------------------|x4
PM* * * * *   * * * * *   * * * * *   * * o  * * o

E|------------------------------------------------|
B|---------------0~--------------------------------|
G|----0-------0--0~--------------------------------|
D|--5------12----2~--------------------------------|
A|7-----14-------3~--------------------------------|
E|------------------------------------------------|x1



(0:49) - Same as (0:05).



(1:08) - No first guitar.



(1:19) - Same as (0:00)x2.



(1:29) - Same as (0:05).



(1:49)
E|------------------------------------------------|
B|0---0-0-0-0-0---0-0-0-0-0---0-0-0-0-3---3---3---|
G|0---0-0-0-0-0---0-0-0-0-0---0-0-0-0-0---0---0---|
D|2---2-2-2-2-2---2-2-2-2-2---2-2-2-2-4---4---4---|
A|3---3-3-3-3-3---3-3-3-3-3---3-3-3-3-5---5---5---|
E|------------------------------------------------|x4



(2:09)
E|------------------------------------------------|
B|---------------------------------------------<7>|
G|0-0---0--0----0-0---0--0----0-0---0-0---0--0-<7>|
D|5-5---12-12---2-2---(b9)-(b9)---0-0---0-0---4--4----|
A|7-7---14-14---3-3---10-10---2-2---(b9)(b9)--5--5----|
E|------------------------------------------------|x1

E|------------------------------------------------|
B|------------------------------------------------|
G|0-0---0--0----0-0---0--0----0-0---0-0---0-0-0-0-|
D|5-5---12-12---2-2---(b9)-(b9)---0-0---0-0---4-4-4h4-|
A|7-7---14-14---3-3---10-10---2-2---(b9)(b9)--5-5-5-5-|
E|------------------------------------------------|x3



(2:29)
E|------------------------------------------------|
B|------------------------------------------------|
G|0-0---0--0----0-0---0--0----0-0---0-0---0-0-0-0-|
D|5-5---12-12---2-2---(b9)-(b9)---0-0---0-0---4-4-4-4-|
A|7-7---14-14---3-3---10-10---2-2---(b9)(b9)--5-5-5-5-|
E|------------------------------------------------|x2
Show more