(Verse 1) 

E5                        B5              C#5                           
Paint a picture as we're walking on the street
                    A5 
a collage of paint, cement, 
          E5                   B5               C#5                           
and steam. Just like Deja Vu, still life in a dream. 
                           A5
There you stood watching 
                           E5    *** {B5 , C#5 , A}
as the rain poured down on me.

e | -----4-4-2-0--4-4-0-0-5-4-2h4-2h3h4------4-2-0- |  
B | -0-0---------------------------------0-0------- |  
G | ----------------------------------------------- |  
D | ----------------------------------------------- |  
A | ----------------------------------------------- |  
E | ----------------------------------------------- |  

e | -----0---0---0---0---0---0---0---0--- |  
B | -4h5---5---5---5---5---5---4---4---0- |  
G | ------------------------------------- |  
D | ------------------------------------- |  
A | ------------------------------------- |  
E | ------------------------------------- |  

E5                    B5                       C#5        
We were once a canvas, so bright and full of color.
     A5
 Now we've become Dorian 
E5                                B5                               
Grey where the frame is bent and cracked. 
                       C#5   Ab5     
I am too, in fact I've been that 
A5   E5     B5       
way since May.


(Chorus) 

        A5    A5    B5                
Let the waves crash down. 
C#5              A5            A5   A5 B5     C#5
They'll swallow all of us and wash a-way          these 
  A5                    A5 A5 B5  C#5                  
memories we tried to s-------------ave. 
E5       B5           E5         *** {B5 , C#5 , A}
Was it enough to be brave?

e | -----4-4-2-0--4-4-0-0-5-4-2h4-2h3h4------4-2-0- |  
B | -0-0---------------------------------0-0------- |  
G | ----------------------------------------------- |  
D | ----------------------------------------------- |  
A | ----------------------------------------------- |  
E | ----------------------------------------------- |  

e | -----0---0---0---0---0---0---0---0--- |  
B | -4h5---5---5---5---5---5---4---4---0- |  
G | ------------------------------------- |  
D | ------------------------------------- |  
A | ------------------------------------- |  
E | ------------------------------------- |  


(Verse 2) 

E5                      B5        C#5         A5     
How did we get so damn far by ignoring everything? 
E5
    You we're the sand beneath 
       B5                              
my feet, eroded by the tide. 
     C#5 Ab5   A5  E5  B5       
It's too hard to believe.


(Chorus) 

        A5    A5    B5                
Let the waves crash down. 
C#5              A5            A5  A5 B5     C#5
They'll swallow all of us and wash a-way          these 
  A5                    A5 A5 B5  C#5                  
memories we tried to s-------------ave. 
E5       B5           E5         B5 C#5 A5 
Was it enough to be brave?


(Bridge)    ***

E5 , B5 , C#5 , A5    X2

E5                                 B5                              C#5
All I ever wanted was a cool, dry place to rest my bones. Not to drift along 
                               A5
with this current forever, not have to sink alone.
E5                                 B5                              C#5
All I ever wanted was a cool, dry place to rest my bones. Not to drift along 
                               A5
with this current forever, not have to sink alone.


e | ------------------- | ------------------- | 
B | ------------------- | ------------------- | 
G | -4-2-1h2-1--------- | -4-2-1h2-1--------- | 
D | -----------4-2----- | -----------4-2-4/6- | 
A | ---------------2-0- | ------------------- | 
E | ------------------- | ------------------- | 

 e  | ------------------- | ------------------- | 
 B  | ------------------- | ------------------- | 
 G  | -4-2-1h2-1--------- | -4-2-1h2-1-2/4-2-1- | 
 D  | -----------4-2----- | ------------------- |  x2
 A  | ---------------2-0- | ------------------- | 
 E  | ------------------- | ------------------- | 
 
 e  | ------------------- | ------------------- | 
 B  | ------------------- | ------------------- | 
 G  | -4-2-1h2-1--------- | -4-2-1h2-1--------- | 
 D  | -----------4-2----- | -----------4-2-4/6- | 
 A  | ---------------2-0- | ------------------- | 
 E  | ------------------- | ------------------- | 

 e  | ------------------- | --------------------- | 
 B  | ------------------- | --------------------- | 
 G  | -4-2-1h2-1--------- | -4-2-1h2-1-2/4-2-1--- | 
 D  | -----------4-2----- | -------------------2- | 
 A  | ---------------2-0- | --------------------- | 
 E  | ------------------- | --------------------- | 


(Chorus) 

        A5    A5    B5                
Let the waves crash down. 
C#5              A5            A5  A5 B5     C#5
They'll swallow all of us and wash a-way          these 
  A5                    A5 A5 B5  C#5                  
memories we tried to s-------------ave. 
E5       B5           E5         
Was it enough to be brave?
Show more