• Song:

    The Time I Tried

  • Artist:

    A N D

The Time I Tried Tab by A N D


-------------------------------------------------------------------------------
			     The Time I Tried ? A.N.D
-------------------------------------------------------------------------------

By:   FiL max_powered_nutter@hotmail.com 

THIS TAB IS 100% CORRECT! I KNOW THIS! IF YOU GOT ANY PROBLEMS, THEN THA?S NOT MY PROBLEM!  

INTRO
e|---------------------------------------------------------------------------|
B|---------------------------------------------------------------------------|
G|---------------------------------------9-9-9-9-9-9-9-9--7-7-7-7-7-7-7-7----|
D|---5-5-5-5-5-5-5-5/---9-9-9-9-9-9-9-9--9-9-9-9-9-9-9-9--7-7-7-7-7-7-7-7----|     
A|---5-5-5-5-5-5-5-5/---9-9-9-9-9-9-9-9--7-7-7-7-7-7-7-7--5-5-5-5-5-5-5-5----|
E|---3-3-3-3-3-3-3-3/---7-7-7-7-7-7-7-7--------------------------------------|

e|---------------------------------------------------------------------------|
B|---------------------------------------------------------------------------|
G|---------------------------------------9-9-9-9-9-9-9-9--5-5-5-5-5-5-5-5----|
D|---5-5-5-5-5-5-5-5/---9-9-9-9-9-9-9-9--9-9-9-9-9-9-9-9--5-5-5-5-5-5-5-5----|     
A|---5-5-5-5-5-5-5-5/---9-9-9-9-9-9-9-9--7-7-7-7-7-7-7-7--3-3-3-3-3-3-3-3----|
E|---3-3-3-3-3-3-3-3/---7-7-7-7-7-7-7-7--------------------------------------|

VERSE ? GUITAR 1
e|---------------------------------------------------------------------------|
B|---------------------------------------------------------------------------|
G|---------------------------------------9-9-9-9-9-9-9-9--7-7-7-7-7-7-7-7----|
D|---5-5-5-5-5-5-5-5/---9-9-9-9-9-9-9-9--9-9-9-9-9-9-9-9--7-7-7-7-7-7-7-7----|     X 8 
A|---5-5-5-5-5-5-5-5/---9-9-9-9-9-9-9-9--7-7-7-7-7-7-7-7--5-5-5-5-5-5-5-5----|
E|---3-3-3-3-3-3-3-3/---7-7-7-7-7-7-7-7--------------------------------------|

VERSE ? GUITAR 2 - UNTIL CHOURS
e|---------------------------------------------------------------------------|
B|---------------------------------------------------------------------------|
G|---------------------------------------------------------------------------|
D|-----0-0-0----0-0-0--------------------------------------------------------|     
A|----7-7-7----0-0-0---------------------------------------------------------|
E|---0-------7---------------------------------------------------------------|


CHOURS ? BOTH GUITARS
e|---------------------------------------------------------------------------|
B|---------------------------------------------------------------------------|
G|---------------------------------------9-9-9-9-9-9-9-9--7-7-7-7-7-7-7-7----|
D|---5-5-5-5-5-5-5-5/---9-9-9-9-9-9-9-9--9-9-9-9-9-9-9-9--7-7-7-7-7-7-7-7----|     
A|---5-5-5-5-5-5-5-5/---9-9-9-9-9-9-9-9--7-7-7-7-7-7-7-7--5-5-5-5-5-5-5-5----|
E|---3-3-3-3-3-3-3-3/---7-7-7-7-7-7-7-7--------------------------------------|

e|---------------------------------------------------------------------------|
B|---------------------------------------------------------------------------|
G|---------------------------------------9-9-9-9-9-9-9-9--5-5-5-5-5-5-5-5----|
D|---5-5-5-5-5-5-5-5/---9-9-9-9-9-9-9-9--9-9-9-9-9-9-9-9--5-5-5-5-5-5-5-5----|     
A|---5-5-5-5-5-5-5-5/---9-9-9-9-9-9-9-9--7-7-7-7-7-7-7-7--3-3-3-3-3-3-3-3----|
E|---3-3-3-3-3-3-3-3/---7-7-7-7-7-7-7-7--------------------------------------|


VERSE ? GUITAR 1
e|---------------------------------------------------------------------------|
B|---------------------------------------------------------------------------|
G|---------------------------------------9-9-9-9-9-9-9-9--7-7-7-7-7-7-7-7----|
D|---5-5-5-5-5-5-5-5/---9-9-9-9-9-9-9-9--9-9-9-9-9-9-9-9--7-7-7-7-7-7-7-7----|     X 3
A|---5-5-5-5-5-5-5-5/---9-9-9-9-9-9-9-9--7-7-7-7-7-7-7-7--5-5-5-5-5-5-5-5----|
E|---3-3-3-3-3-3-3-3/---7-7-7-7-7-7-7-7--------------------------------------|


VERSE ? GUITAR 2 - UNTIL OUTRO
e|---------------------------------------------------------------------------|
B|---------------------------------------------------------------------------|
G|---------------------------------------------------------------------------|
D|-----0-0-0----0-0-0--------------------------------------------------------|     
A|----7-7-7----0-0-0---------------------------------------------------------|
E|---0-------7---------------------------------------------------------------|

OUTRO
e|---------------------------------------------------------------------------|
B|---------------------------------------------------------------------------|
G|---------------------------------------9-9-9-9-9-9-9-9--7-7-7-7-7-7-7-7----|
D|---5-5-5-5-5-5-5-5/---9-9-9-9-9-9-9-9--9-9-9-9-9-9-9-9--7-7-7-7-7-7-7-7----|     
A|---5-5-5-5-5-5-5-5/---9-9-9-9-9-9-9-9--7-7-7-7-7-7-7-7--5-5-5-5-5-5-5-5----|
E|---3-3-3-3-3-3-3-3/---7-7-7-7-7-7-7-7--------------------------------------|

e|---------------------------------------------------------------------------|
B|---------------------------------------------------------------------------|
G|---------------------------------------9?-9--9--9--9--9--9--9---------5----|
D|---5-5-5-5-5-5-5-5/---9-9-9-9-9-9-9-9--9?-9--9--9--9--9--9--9---------5----|     
A|---5-5-5-5-5-5-5-5/---9-9-9-9-9-9-9-9--7?-7--7-?7-?7-?7--7--7---------3----|
E|---3-3-3-3-3-3-3-3/---7-7-7-7-7-7-7-7--------------------------------------|

===============================================================================
Show more