Intro:

   D5    PALM MUTE    D5    PALM MUTE    A5    A#5   A5   A#5
E:---- | ------------- | ---- | ------------- | ---- | -------------------- | 
B:---- | ------------- | ---- | ------------- | ---- | -------------------- | 
G:--7- | ------------- | --7- | ------------- | ---- | -------------------- | 
D:--7- | -0-8-0-7-5-0- | --7- | -0-8-0-7-5-0- | --7- | -8-8-8-0-7--8-8-8-0- |  X2
A:--5- | ------------- | --5- | ------------- | --7- | -8-8-8-0-7--8-8-8-0- | 
E:---- | ------------- | ---- | ------------- | --5- | -6-6-6-0-5--6-6-6-0- | 

 Y ahora:

  D5                            C5 C5 D5
Siempre perdidos buscamos el fin
  D5                            F5 A#5
voy por caminos que est?n por abrir
  A#5     G5                D5
kada ma?ana comienzo a vivir(*)

  
  D5                            C5 C5 D5
Ponte a mi lado no llores por mi
  D5                            F5 A#5
yo piso fuerte y en parte es por ti
  A#5     G5                D5
kada ma?ana komienzo a vivir(*)


  B5
Y tu que estas en kasa metido en la nevera,

escondes la cabeza, la muerte ronda fuera.
  D5               C5 C5 D5
Ya est?s, ya est?s....


  B5
Y t? que te preocupas por culpa del futuro,

kuando ya no te quede, ser? kuando te enteres
  D5                C5 D5  F5 
Ya est?s, ya est?s....
A#5        G5         A5 (PM)
mas que enterrado en vida.

ESTRIBILLO:
  D5     A5 G5 F5       G5
T? en tu kasa, nosotros en la hoguera(X4)

EL PUNTEILLO ES F?CIL:

E:------------------------------------------ | 
B:------------------------------------------ | 
G:---7-10-9-7------------------------------- | 
D:------------9-7-7-8-7-5-3-5-7-5-3-2-0----- | 
A:------------------------------------------ | 
E:------------------------------------------ | 

E:--------------------------------- | 
B:--------------------------------- | 
G:---7-10-9-7-------------------5-- | 
D:------------9-7-7-8-7-5-3-5-7---- | 
A:--------------------------------- | 
E:--------------------------------- | 

E:------------------------------------------ | 
B:------------------------------------------ | 
G:---7-10-9-7------------------------------- | 
D:------------9-7-7-8-7-5-3-5-7-5-3-2-0----- | 
A:------------------------------------------ | 
E:------------------------------------------ | 

E:--------------------------------------- | 
B:--------------------------------------- | 
G:---7-10-9-7-------------------5-7-5-7^- | 
D:------------9-7-7-8-7-5-3-5-7---------- | 
A:--------------------------------------- | 
E:--------------------------------------- | 

D5     A5 G5 F5       G5
T? en tu kasa, nosotros en la hoguera(X4)

AHORA:
A5 A5 A5 A5 A5 A5 (pm )  D5

D5                               C5 D5
Siempre me faltan horas de dormir,
                           F5 A#5
komo me gusta no tener reloj,
A#5         G5             D5
de madrugada me siento mejor(*)


D5                               C5 D5
Yo soy muy listo se me equivocar,
                                F5 A#5
kuando hablo de algo lo he probaaao,
A#5         G5                       D5
ya todo el d?a hablando, no pienso parar(*)


B5
Y tu que estas en kasa metido en la nevera,

escondes la cabeza, la muerte ronda fuera.
  D5               C5 C5 D5
Ya est?s, ya est?s....


  B5
Y t? que te preocupas por culpa del futuro,

kuando ya no te quede, ser? kuando te enteres
  D5                C5 D5  F5 
Ya est?s, ya est?s....
A#5        G5        A5 (pm )
mas que enterrado en vida.

ESTRIBILLO:
  D5     A5 G5 F5       G5               final: D5
T? en tu kasa, nosotros en la hoguera(X4)

(*)Se toka este punteo

E:----------------- | 
B:----------------- | 
G:--7-5---5-------- | 
D:------7---7-5---- | 
A:--------------8-- | 
E:----------------- |
Show more