• Song:

    3 Libras

  • Artist:

    A Perfect Circle

  • Album:

    2000-06-04: Phoenix, AZ...

Verse 0:28
E  |------------------------------------
B  |------------------------------------
F# |---3--3---------5--5----------------
Db |---------3--3---------6--6----------

     Last verse
E  |--------------------------------------
B  |--------------------------------------
F# |---3--3---------5--5--------7-7-7-----
Db |---------3--3---------6--6------------


      Chorus 0:49   ( ) = play this note this time only
E  |---------------------------------------------------------------------------
B  |---------------------------------------------------------------------------
F# |---3--3-3--3-3--3-3--3-3--3-3--3-3/5--5-5/7--7--7-7-7-7-----7--7-7-7-7-----
Db |---------------------------------------------------------0-----------------

E  |-------------------------------------------------------------------------------
B  |-------------------------------------------------------------------------------
F# |---3--3-3--3-3--3-3--3-3--3-3--3-3/5--5-5/7--7--7-7-7-7---8--8--8-8-8-8--------
Db |------------------------------------------------------------------------(1)----
       

-Verse- 1:19 (X3)   -Last verse-

-Chorus- 1:40


      Bridge 2:01
E  |--------------------------------------------------
B  |--------------------------------------------------
F# |------------------------6--6-6--6-----------------
Db |---3--3-3-3--3--3-3-3--------------4--4--4--------

      Bridge II 2:21
E  |--------------------------------------------------------------------------------
B  |--------------------------------------------------------------------------------
F# |----3--3--3--3--3--3--7--7--3--3--3--3--10--10--7--7--3--3--3--3--3--3--7--7----
Db |--------------------------------------------------------------------------------

E  |-------------------------------------------------------------
B  |-------------------------------------------------------------
F# |----3--3--3--3--------7--7--8--8--8--8--8--8-7-7-7---------
Db |----------------3--3-----------------------------------------

    Ending Chorus 2:46
E  |------------------------------------------------------------------------------
B  |------------------------------------------------------------------------------
F# |---3--3-3--3-3--3-3--3-3--3-3--3-3/5--5-5/7--7--7-7-7-7-----7--7-7-7-7--------
Db |---------------------------------------------------------0--------------------

E  |---------------------------------------------------------------------------
B  |---------------------------------------------------------------------------
F# |---3--3-3--3-3--3-3--3-3--3-3--3-3/5--5-5/7--7--7-7-7-7--7--7-7-7-7--------
Db |---------------------------------------------------------------------------

E  |------------------------------------------------------------------------------
B  |------------------------------------------------------------------------------
F# |---3--3-3--3-3--3-3--3-3--3-3--3-3/5--5-5/7--7--7-7-7-7-----7--7-7-7-7--------
Db |---------------------------------------------------------0--------------------

E  |------------------------------------------------------------------------------
B  |------------------------------------------------------------------------------
F# |---3--3-3--3-3--3-3--3-3--3-3--3-3/5--5-5/7--7--7-7-7-7---8--8--8-8-8-8-------
Db |-------------------------------------------------------------------------1----
Show more