• Song:

    Bre?a

  • Artist:

    A Perfect Circle

h = hammer-on

p = pull-off
~ = let note ring
^ = bend
x = mute

Tuning: Db Standard

On all the live video's I have, Paz plays the intro on her bass.

Intro;
E |--------16--------17-16-16----16--------
B |-----14----14-----14-------14----14-----
F#|--16----------16--16----------------16--
Db|----------------------------------------

E |--------16--------17-16-16----16--------
B |-----14----14-----14-------14----14-----
F#|--16----------16--16----------------16--
Db|----------------------------------------

E |------------16-----------16----16---------------16-----16~--
B |--16/18--18----18/16-14-----14----14--16/18--18----18-------
F#|---0-----------------------------------0--------------------
Db|------------------------------------------------------------

E |---------16--------17-16-16----16--------
B |------14----14-----14-------14----14-----
F#|---16----------16--16----------------16--
Db|-----------------------------------------

E |--------16--------17-16-16----16--------
B |-----14----14-----14-------14----14-----
F#|--16----------16--16----------------16--
Db|----------------------------------------

E |------------16-----16------16--------
B |--16/18--18----18------18-------18~--
F#|---0---------------------------------
Db|-------------------------------------

Verse;
E |-------------------------------------------
B |-------------------------------------------
F#|-------------------------------------------
Db|--9~-9(b9)-9~-9(b9)-0-(b9)(b9)-9~-9(b9)-9~-9(b9)-0-9(b9)-

E |-------------------------------------------
B |-------------------------------------------
F#|-------------------------------------------
Db|--5~-55--5~-55--0-5-5--5~-55--5~-55--0-55--

E |-------------------------------------------
B |-------------------------------------------
F#|-------------------------------------------
Db|--9~-9(b9)-9~-9(b9)-0-(b9)(b9)-9~-9(b9)-9~-9(b9)-0-9(b9)-

E |-------------------------------------------
B |-------------------------------------------
F#|-------------------------------------------
Db|--5~-55--5~-55--0-5-5--5~-55--5~-55--0-55--

Chorus;
E |-----------------
B |-----------------
F#|------7-7-(b9)6~---
Db|--(b9)(b9)-----------

E |--------------------------------------------
B |--------------------------------------------
F#|--------------------------------------------
Db|--5--7--0-5~-55--0~-55--0~-55--0~-5~--/777--

E |-----------------
B |-----------------
F#|------7-7-(b9)6~---
Db|--(b9)(b9)-----------

E |--------------------------------------------
B |--------------------------------------------
F#|--------------------------------------------
Db|--5--7--0-5~-55--0~-55--0~-55--0~-5~--/777--

Verse;
E |-------------------------------------------
B |-------------------------------------------
F#|-------------------------------------------
Db|--9~-9(b9)-9~-9(b9)-0-(b9)(b9)-9~-9(b9)-9~-9(b9)-0-9(b9)-

E |-------------------------------------------
B |-------------------------------------------
F#|-------------------------------------------
Db|--5~-55--5~-55--0-5-5--5~-55--5~-55--0-55--

E |-------------------------------------------
B |-------------------------------------------
F#|-------------------------------------------
Db|--9~-9(b9)-9~-9(b9)-0-(b9)(b9)-9~-9(b9)-9~-9(b9)-0-9(b9)-

E |-------------------------------------------
B |-------------------------------------------
F#|-------------------------------------------
Db|--5~-55--5~-55--0-5-5--5~-55--5~-55--0-55--

Chorus;
E |-----------------
B |-----------------
F#|------7-7-(b9)6~---
Db|--(b9)(b9)-----------

E |--------------------------------------------
B |--------------------------------------------
F#|--------------------------------------------
Db|--5--7--0-5~-55--0~-55--0~-55--0~-5~--/777--

E |-----------------
B |-----------------
F#|------7-7-(b9)6~---
Db|--(b9)(b9)-----------

E |--------------------------------------------
B |--------------------------------------------
F#|--------------------------------------------
Db|--5--7--0-5~-55--0~-55--0~-55--0~-5~--/777--

Bridge;
E |-------------------------------------------
B |-------------------------------------------
F#|-------------------------------------------
Db|--9~-9(b9)-9~-9(b9)-0-(b9)(b9)-9~-9(b9)-9~-9(b9)-0-9(b9)-

E |-------------------------------------------
B |-------------------------------------------
F#|-------------------------------------------
Db|--5~-55--5~-55--0-5-5--5~-55--5~-55--0-55--

E |---------------------------------------------------
B |---------------------------------------------------
F#|---------------------------------------------------
Db|--9~-9(b9)-9~-9(b9)-0-9/14-14--9~-9(b9)-12~-12-12--0-9(b9)-

E |-------------------------------------------
B |-------------------------------------------
F#|-------------------------------------------
Db|--5~-55--5~-55--0-5-5--5~-55--5~-55--0-55--

Verse;
E |-------------------------------------------
B |-------------------------------------------
F#|-------------------------------------------
Db|--9~-9(b9)-9~-9(b9)-0-(b9)(b9)-9~-9(b9)-9~-9(b9)-0-9(b9)-

E |-------------------------------------------
B |-------------------------------------------
F#|-------------------------------------------
Db|--5~-55--5~-55--0-5-5--5~-55--5~-55--0-55--

E |---------------------------------------------------
B |---------------------------------------------------
F#|---------------------------------------------------
Db|--9~-9(b9)-9~-9(b9)-0-9/14-14--9~-9(b9)-12~-12-12--0-9(b9)-

E |-------------------------------------------
B |-------------------------------------------
F#|-------------------------------------------
Db|--5~-55--5~-55--0-5-5--5~-55--5~-55--0-55--

Under Solo;
E |-------------------------------------------
B |-------------------------------------------
F#|-------------------------------------------
Db|--9~-9(b9)-9~-9(b9)-0-(b9)(b9)-9~-9(b9)-9~-9(b9)-0-9(b9)-

E |-------------------------------------------
B |-------------------------------------------
F#|-------------------------------------------
Db|--5~-55--5~-55--0-5-5--5~-55--5~-55--0-55--

E |---------------------------------------------------
B |---------------------------------------------------
F#|---------------------------------------------------
Db|--9~-9(b9)-9~-9(b9)-0-9/14-14--9~-9(b9)-12~-12-12--0-9(b9)-

E |----------------------------------------------
B |----------------------------------------------
F#|----------------------------------------------
Db|--5~-55--5~-55--0-5-5--5~-55--5~-55--0-5-/9~--
Show more