• Song:

    Over

  • Artist:

    A Perfect Circle

  • Album:

    2001-03-31: St. Paul, M...

( C# F# B E G# C# )

(riff A)
Kalimba arr. for gtr
E|-4----3--4--------------------4----3--4--------------------------
B|-----------------------------------------------------------------
G|-----------------------------------------------------------------
D|-----------------------------------------------------------------
A|-----------------------------------------------------------------
E|-----------------------------------------------------------------

E|-4----3--4--------3-----------4-------3--------------------------
B|-------------------------------------------------4---------------
G|-----------------------------------------------------------------
D|-----------------------------------------------------------------
A|-----------------------------------------------------------------
E|-----------------------------------------------------------------

(verse)
E|-4----3-----------------------4----3-----------------------------
B|-----------4----6------------------------4----6------------------
G|-----------------------------------------------------------------
D|-----------------------------------------------------------------
A|-----------------------------------------------------------------
E|-----------------------------------------------------------------

E|-4----3-----------------------4----3-------------------------1---
B|-----------4----6-------------------------4----2--------2--------
G|-----------------------------------------------------------------
D|-----------------------------------------------------------------
A|-----------------------------------------------------------------
E|-----------------------------------------------------------------

(interlude - piano arr. for gtr)
E|-----------------------------------------------------------------
B|-----------------------------------------------------------------
G|-3---1-------3---1------3---1------3---1-------3---1---------0---
D|-3-------3---1------3---x------3-----------3---3------3---1-----1
A|------------------------1------------------x---------------------
E|-------------------------------------------4---------------------

(bridge)
E|-------------------------------------------------1---------------
B|---------1---3---1---------------1---4---3---1-------4---3---1---
G|-2---3---------------3---2---3-----------------------------------
D|-------------------------------------------------1---------------
A|-----------------------------------------------------------------
E|-3-----------------------1---------------------------------------

E|---------1-------------------------------------------------------
B|-3-----------4---3---1---3---------------------------------------
G|-----3-----------------------0-----------------------------------
D|-----------------------------------------------------------------
A|-----------------------------------------------------------------
E|-----------------------------------------------------------------
Show more