Hike Tab by A Wilhelm Scream


tab by: Farting Gramps
farting_grampz@hotmail.com


Band: A WILHELM SCREAM
Song: Hike
Album: "Benefits of Thinking Out Loud" (2002)
website: http://www.awilhelmscream.net

···Standard Tuning···

KEY

 ->  time
 *   pause
 x   mute
 ~   let ring
 .   palm mute

·Verse·
-> 0:09

 |BOTH GUITARS
 |------------------------------------------------------|
 |------------------------------------------------------|
 |------------------------x7-77----77----77----77-------|
 |-99----99----99----99---x7-77-*--77-*--77-*--77-*-x7--|
 |-99-*--99-*--99-*--99-*-x5-55----55----55----55---x7--|
 |-77----77----77----77-----------------------------x5--|


-> 0:18                              |
 ------------------------------------|
 ------------------------------------|
 -------7---------------7------------|
 -99----779-----579-----779----5~~~--|
 -99-*--579-*---579-*---579-*--5~~~--|
 -77-----57-----357------57----3~~~--|

·Chorus·
-> 0:27                 -> 0:33

 |---------------------|-----------------------|
 |---------------------|-----------------------|
 |-7777----------------|-7777------------------|
 |-7777-7777-9999-5555-|-7777-7777-9999---5----|
 |-5555-7777-9999-5555-|-5555-7777-9999-555-*--|
 |------5555-7777-3333-|------5555-7777-333----|
          (x3)                          ..


m/ (O_o) m/
±PUNK 4 LIFE±
Show more