Rip Tab by A Wilhelm Scream


Artist: A Wilhelm Scream
Track: The Rip
Album: Mute Print
Released: 2004
Label: Nitro Records

Key:
|---| ~ this is a section which is palm muted
  h   ~ hammer on
  ~   ~ let note ring
  p   ~ pull off
  / \  ~ slide from the note before the slash to the note after it. if no number 
slide

Intro
Rhythm
0:00
e-------|
B-------|
G-------|
D-0~----|
A-0~----|
D-0~----|

0:04
Rhythm
e------------------------------------------------------------------|
B------------------------------------------------------------------|
G------------------------------------------------------------------|
D-0-0-12p10-0-12p10-0-13-13-13-13-13-13-13-0-0-10p12-0-10p12-0-13~-|
A------------------------------------------------------------------|
D------------------------------------------------------------------|

0:08
Rhythm
e----------------------------------------------------|
B----------------------------------------------------|
G----------------------------------------------------|
D--0-0-8-0-0-7-0-0-8-10-8-7-0-0-8-0-0-7-0-0-8-10-8-7-|
A----------------------------------------------------|
D----------------------------------------------------|

0:12
Rhythm
e------------------------------------------------------------------|
B------------------------------------------------------------------|
G------------------------------------------------------------------|
D-0-0-12p10-0-12p10-0-13-13-13-13-13-13-13-0-0-10p12-0-10p12-0-13~-|
A------------------------------------------------------------------|
D------------------------------------------------------------------|

0:16
Rhythm
e----------------------------------------------------|
B----------------------------------------------------|
G----------------------------------------------------|
D--0-0-8-0-0-7-0-0-8-10-8-7-0-0-8-0-0-7-0-0-8-10-8-7-|
A----------------------------------------------------|
D----------------------------------------------------|

0:21
Rhythm
e------------------------------------------------------------------|
B------------------------------------------------------------------|
G------------------------------------------------------------------|
D-0-0-12p10-0-12p10-0-13-13-13-13-13-13-13-0-0-10p12-0-10p12-0-13~-|
A------------------------------------------------------------------|
D------------------------------------------------------------------|

Lead
0:00 Repeat 2x
e-------------------------------------------------------------------------|
B-------------------------------------------------------------------------|
G-------------------------------------------------------------------------|
D-0-8p7-0-8p7-0-10-10-10-10-10-10-10-0-8p7-0-8p7-0-10~--------------------|
A-------------------------------------------------------------------------|
D-------------------------------------------------------------------------|

0:04
Lead
e-----------------------------------------------------------|
B-----------------------------------------------------------|
G-----------------------------------------------------------|
D--0-0-8p7-0-8p7-0-10-10-10-10-10-10-10-0-0-8p7-0-8p7-0-10~-|
A-----------------------------------------------------------|
D-----------------------------------------------------------|

0:08
Lead
e---------------------------------------------------------------|
B---------------------------------------------------------------|
G---------------------------------------------------------------|
D--0-0-12-0-0-10-0-0-12-13-12-10--0-0-12-0-0-10-0-0-12-13-12-10-|
A---------------------------------------------------------------|
D---------------------------------------------------------------|

0:12
Lead
e--------------------------------------------------------|
B--------------------------------------------------------|
G--------------------------------------------------------|
D---0-8p7-0-8p7-0-10-10-10-10-10-10-10-0-8p7-0-8p7-0-10~-|
A--------------------------------------------------------|
D--------------------------------------------------------|

0:16
Lead
e---------------------------------------------------------------|
B---------------------------------------------------------------|
G---------------------------------------------------------------|
D--0-0-12-0-0-10-0-0-12-13-12-10--0-0-12-0-0-10-0-0-12-13-12-10-|
A---------------------------------------------------------------|
D---------------------------------------------------------------|

0:21
Lead
e--------------------------------------------------------|
B--------------------------------------------------------|
G--------------------------------------------------------|
D---0-8p7-0-8p7-0-10-10-10-10-10-10-10-0-8p7-0-8p7-0-10~-|
A--------------------------------------------------------|
D--------------------------------------------------------|

0:25
e-----------------------------------------------------|
B-----------------------------------------------------|
G-----3-3-3-3-3-------------xxxxx-7--xxxxx-7-xxxxx-7--|
D-0-0-3-3-3-3-3-33--3--55---xxxxx-7--xxxxx-7-xxxxx-7--|
A-0-0-1-1-1-1-1-33--3--55---xxxxx-5--xxxxx-5-xxxxx-5--|
D-0-0-----------33--3--55-----------------------------|
 |---|                     |-----|  |-----| |---------|

0:31
e-------------------------------------------------------------|
B-------------------------------------------------------------|
G-10-10-x-3-3-x-5-5--5-5-5----3-3-3-3-3-x---------------------|
D-10-10-x-3-3-x-5-5--5-5-5----3-3-3-3-3-x-3-3-x-5-5-0-0-0-0-0-|
A--8--8-x-1-1-x-3-3--3-3-3----1-1-1-1-1-x-3-3-x-5-5-0-0-0-0-0-|
D-----------------------------------------3-3-x-5-5-0-0-0-0-0-|

0:34
Repeat 2x
e-----------------------------------------|
B-----------------------------------------|
G-----3-3-3-3-3-x-------------------------|
D-----3-3-3-3-3-x-3-3-x-5-5-0-0-0-0-0-----|
A-----1-1-1-1-1-x-3-3-x-5-5-0-0-0-0-0-----|
D-----------------3-3-x-5-5-0-0-0-0-0-----|

0:42
   on 2nd time add:
e-----------------------|------------------|
B-----------------------|------------------|
G--3-------5-------7----|------------------|
D--3-------5-------7----|-3--3-3--5--5-5-0-|
A--1-------3-------5----|-3--3-3--5--5-5-0-|
D-----------------------|-3--3-3--5--5-5-0-|
  |-|x7   |-|x7   |-|x14-------------------|

0:53
e------------------------------------------------|
B------------------------------------------------|
G--3-3-3-3-3------------xxxxx-7-xxxxx-7--xxxxx-7-|
D--3-3-3-3-3-33--3--55--xxxxx-7-xxxxx-7--xxxxx-7-|
A--1-1-1-1-1-33--3--55--xxxxx-5-xxxxx-5--xxxxx-5-|
D------------33--3--55---------------------------|
                       |-----| |-----|  |--------|
0:58
e-------------------------------------------------------------|
B-------------------------------------------------------------|
G-10-10-x-3-3-x-5-5--5-5-5----3-3-3-3-3-x---------------------|
D-10-10-x-3-3-x-5-5--5-5-5----3-3-3-3-3-x-3-3-x-5-5-0-0-0-0-0-|
A--8--8-x-1-1-x-3-3--3-3-3----1-1-1-1-1-x-3-3-x-5-5-0-0-0-0-0-|
D-----------------------------------------3-3-x-5-5-0-0-0-0-0-|

1:00
Repeat 2x
e-----------------------------------------|
B-----------------------------------------|
G-----3-3-3-3-3-x-------------------------|
D-----3-3-3-3-3-x-3-3-x-5-5-0-0-0-0-0-----|
A-----1-1-1-1-1-x-3-3-x-5-5-0-0-0-0-0-----|
D-----------------3-3-x-5-5-0-0-0-0-0-----|

1:08
   on 2nd time add:
e-----------------------|------------------|
B-----------------------|------------------|
G--3-------5-------7----|------------------|
D--3-------5-------7----|-3--3-3--5--5-5-0-|
A--1-------3-------5----|-3--3-3--5--5-5-0-|
D-----------------------|-3--3-3--5--5-5-0-|
  |-|x7   |-|x7   |-|x14-------------------|

1:17
Show more