They Like Their Turtlenecks Ribbed Tab by A Wilhelm Scream


Artist: A Wilhelm Scream
Track: They Like Their Turtlenecks Ribbed
Album: Diver 7"
Released: 2006
Label: Jump Start

Key:
|---| ~ this is a section which is palm muted
  h   ~ hammer on
  ~   ~ let note ring
  p   ~ pull off
  /   ~ slide from the note before the slash to the note after it unless theres no number to slide
        to, in which case just slide down the neck from the first number


0:00
Lead
e------------------------------------------------|
B-5-5-6-5--5-5-5-6-5--5-5-5-6-5-x-x--x-x-x-x-----|
G-5-5-5-5--5-5-5-5-5--5-5-5-5-5-x-x--x-x-x-x-----|
D------------------------------------------------|
A------------------------------------------------|
D------------------------------------------------|

0:00
Rhythm
e---------------------------------------------|
B-5-5-6-5--5-5-5-6-5--5-5-5-6-5---------------|
G-5-5-5-5--5-5-5-5-5--5-5-5-5-5-5-5--5-5-5-5--|
D-------------------------------5-5--5-5-5-5--|
A-------------------------------3-3--3-3-3-3--|
D---------------------------------------------|
                               |--------------|
0:04
Lead - Repeat until 0:23
e------------------------------------------|
B-5-5-6-5--5-5-5-6-5--5-5-5-6-5--5-5-5-6-5-|
G-5-5-5-5--5-5-5-5-5--5-5-5-5-5--5-5-5-5-5-|
D------------------------------------------|
A------------------------------------------|
D------------------------------------------|

0:04
Rhythm - Repeat 2x
e------------------------------------------------------------------------------------------------------------|
B------------------------------------------------------------------------------------------------------------|
G-2--2-2-2222--2--2-2-2222--2--2-2-2222--2--2-2-2222--9--9-9--9999--9--9-9--9999-10-10-10-10101010-10-10-10--|
D-2--2-2-2222--2--2-2-2222--2--2-2-2222--2--2-2-2222--9--9-9--9999--9--9-9--9999-10-10-10-10101010-10-10-10--|
A-0--0-0-0000--0--0-0-0000--0--0-0-0000--0--0-0-0000--7--7-7--7777--7--7-7--7777--8--8--8--8-8-8-8--8--8--8--|
D------------------------------------------------------------------------------------------------------------|
        |----|       |----|       |----|       |----|        |----|        |----|        |-------------------|
0:23
e----------------------------------------|
B----------------------------------------|
G----------------------------------------|
D-5-x-x-5~--3-3-3-3-3-3-3-3-3-3-3-3-3--3-|
A-5-x-x-5~--3-3-3-3-3-3-3-3-3-3-3-3-3--3-|
D-5-x-x-5~--3-3-3-3-3-3-3-3-3-3-3-3-3--3-|
             |---------------------------|

0:31
Lead
e----------------------------------------------------|
B------------------------------5---5^5------5---5^5--|
G-5-5--5-------------------5-5---5------5-5---5------|
D-5-5--5-5-5--5-7-7--7-7-7---------------------------|
A-3-3--3-5-5--5-7-7--7-7-7---------------------------|
D--------5-5--5-7-7--7-7-7---------------------------|

0:31
Rhythm
e-----------------------------------------------------|
B-----------------------------------------------------|
G-5-5--5----------------------------------------------|
D-5-5--5-5-5--5-7-7--7-7-7--3-3--3-3-3--3-3-3--3-3-3--|
A-3-3--3-5-5--5-7-7--7-7-7--3-3--3-3-3--3-3-3--3-3-3--|
D--------5-5--5-7-7--7-7-7--3-3--3-3-3--3-3-3--3-3-3--|
                           |--------------------------|
0:35
e-------------------------------|
B-------------------------------|
G-5-5--5------------------------|
D-5-5--5-5-5--5-7-7--7-7-7--7-3-|
A-3-3--3-5-5--5-7-7--7-7-7--7-3-|
D--------5-5--5-7-7--7-7-7--7-3-|
Show more