• Song:

    Anlisis De Amor

  • Artist:

    Adammo

Encontré estas partituras en otra página publicado por "john", suerte.

INTRO:

G|------------------------------------------------|
D|---9-9---11/13--11/13--11---9/11----------------|
R|---9/11-----------------------------------------|
E|------------------------------------------------|


G|------------------------------------------------|
D|---9-9---9/11--9--------------------------------|
R|---9/11-----------------------------------------|
E|------------------------------------------------|



G|------------------------------------------------|
D|---9-9---11/13--11/13--11---9/11----------------|
R|---9/11-----------------------------------------|
E|------------------------------------------------|


G|------------------------------------------------|
D|---9-9---9/11--9---9/21-------------------------|
R|---9/11-----------------------------------------|
E|------------------------------------------------|



G|------------------------------------------------|
D|------------------------------------------------|
A|----------6(X8)----------4(X8)------------------|
E|---4(X8)----------4(X8)-------------------------|


G|------------------------------------------------|
D|------------------------------------------------|
A|----------6(X8)---------------------------------|
E|---4(X8)----------7(X9)-------------------------|


CORO:


G|------------------------------------------------|
D|------------------------------------------------|
A|----------6(X8)---------7(X8)------9------------|
E|---7(X8)----------4(X8)-------------------------|

G|------------------------------------------------|
D|------------------------------------------------|
A|----------6(X8)---------7(X8)------9------------|
E|---7(X8)----------4(X8)-------------------------|

G|------------------------------------------------|
D|------------------------------------------------|
A|----------6(X8)---------7(X8)------9------------|
E|---7(X8)----------4(X8)-------------------------|

G|------------------------------------------------|
D|------------------------------------------------|
A|----------6(X8)---------7(X8)------9------------|
E|---7(X8)----------4(X8)-------------------------|



VERSO:

G|------------------------------------------------|
D|------------------------------------------------|
A|----------6(X8)---------7(X8)------9-7-6--------|
E|---7(X8)----------4(X8)------------------7------|

G|------------------------------------------------|
D|------------------------------------------------|
A|----------6(X8)---------7(X8)------9-7-6--------|
E|---7(X8)----------4(X8)------------------7------|

PRE-CORO:

G|------------------------------------------------|
D|------------------------------------------------|
A|----------6(X8)----------4(X8)------------------|
E|---4(X8)----------4(X8)-------------------------|

G|------------------------------------------------|
D|------------------------------------------------|
A|----------6(X8)---------------------------------|
E|---4(X8)----------7(X9)-------------------------|

CORO:


G|------------------------------------------------|
D|------------------------------------------------|
A|----------6(X8)---------7(X8)------9------------|
E|---7(X8)----------4(X8)-------------------------|

G|------------------------------------------------|
D|------------------------------------------------|
A|----------6(X8)---------7(X8)------9------------|
E|---7(X8)----------4(X8)-------------------------|

G|------------------------------------------------|
D|------------------------------------------------|
A|----------6(X8)---------7(X8)------9------------|
E|---7(X8)----------4(X8)-------------------------|

G|------------------------------------------------|
D|------------------------------------------------|
A|----------6(X8)---------7(X8)------9------------|
E|---7(X8)----------4(X8)-------------------------|



ANTES DEL SOLO:


G|------------------------------------------------|
D|------------------------------------------------|
A|----------6(X8)---------7(X8)------9(X8)--------|
E|---7(X8)----------4(X8)-------------------------|

G|------------------------------------------------|
D|------------------------------------------------|
A|----------6(X8)---------7(X8)------9(X8)--------|
E|---7(X8)----------4(X8)-------------------------|

G|------------------------------------------------|
D|------------------------------------------------|
A|----------6(X8)---------7(X8)------9(X8)--------|
E|---7(X8)----------4(X8)-------------------------|

G|------------------------------------------------|
D|------------------------------------------------|
A|----------6(X8)---------7(X8)------9(X8)--------|
E|---7(X8)----------4(X8)-------------------------|

ANTES DE QUE TERMINE LA CANCION:

G|------------------------------------------------|
D|------------------------------------------------|
A|----------6(X4)---------7(X4)------9(X4)--------|
E|---7(X4)----------4(X4)-------------------------|

G|------------------------------------------------|
D|------------------------------------------------|
A|----------6(X4)---------7~----------------------|
E|---7(X4)----------4(X4)-------------------------|
Show more