• Song:

    Sin Miedo

  • Artist:

    Adammo

esta es una buena canción d Adammo y siguan apoyando al RockPeruano!!!
bueno está muy fácil, así que solamente den el ritmo...

VERSO:"Busca otro camino..."(0:25)
G-------------------------------|
D-------------------------------|
A-1/777777--------444444--------|  X2
E----------777777--------555555-|

PRE-CORO:"No me digas..."
G---------------------------------|
D---------------------------------|
A-7-7-7-7---------4-4-4-4---------|
E---------7-7-7-7---------5-5-5-5-|

G---------------------------------|
D---------------------------------|
A-7-7-7-7---------4-4-4-4---------|
E---------7-7-7-7---------5555555-|

CORO:"No, no, no..."
G-----------------------------|
D-----------------------------|
A-777777--------444444--------|  X4
E--------777777--------555555-|

vuelve en el verso...
VERSO:"Ahora puedo salir..."
G-----------------------------|
D-----------------------------|
A-777777--------444444--------|  X4
E--------777777--------555555-|

CORO:"No, no, no..."
G-----------------------------|
D-----------------------------|
A-777777--------444444--------|  X4
E--------777777--------555555-|

SOLO:
G-----------------------------|
D-----------------------------|
A-777777--------444444--------|  X2
E--------777777--------555555-|

PRE-CORO:"No me esperes..."
G---------------------------------|
D---------------------------------|
A-7-7-7-7---------4-4-4-4---------|
E---------7-7-7-7---------5-5-5-5-|

G---------------------------------|
D---------------------------------|
A-7-7-7-7---------4-4-4-4---------|
E---------7-7-7-7---------5555555-|

CORO:"No, no, no..."
G-----------------------------|
D-----------------------------|
A-777777--------444444--------|  X6
E--------777777--------555555-|


bueno espero que les guste y cualquier duda mi msn es ajpe_24@hot...
Show more