Hello!
This is my first tab
You can check my cover on youtube: http://www.youtube.com/watch?v=nFzTqwVhins
Also check my profile for other covers :)
Tab isnt complete, the slow part is missing so feel free to finish it.



G|--------------------------------------------------|
D|--------------------------------------------------|
A|--------------------------------------------------|
D|0~----0~----3~----5~----0~-XXX0~-XXX3~----5\----5\|

G|--------------------------------------------------|
D|--------------------------------------------------|
A|------------------------------------------3-------|
D|0~0~00--XX0~0~00---8~8~88-888-5~5~55--333--5------|

G|--------------------------------------------------|
D|--------------------------------------------------|
A|--------------------------------------------------|
D|0-0-00--XX0-0-00----8~8~88-888-5~5~55-555555------|

G|--------------------------------------------------|
D|--------------------------------------------------|
A|--------11111111--------33333333-1~-3~------------|x2
D|00000000--------33333333--------------------------|

G|--------------------------------------------------|
D|--------------------------------------------------|
A|--------------------------------------------------|
D|00000000------00000000----XX-X3~----5~----\5------|

G|--------------------------------------------------|
D|--------------------------------------------------|
A|------------------------------------------3-------|
D|0~0~00--XX0~0~00---8~8~88-888-5~5~55--333--5------|

G|----------------------------------------------------------------------|
D|---------------------------5~8~---------------------------------------|
A|----------------------------------------------------------------------|
D|0~0~-00----00008750~0~00-------8~8~88---888-5~5~5555\8888\15151515----|

G|--------------------------------------------------|
D|--------------------------------------------------|
A|--------------------------------------------------|
D|0000---0000---000000000000---0000--00-------------|


G|--------------------------------------------------------|
D|--------------------------------------------------------|
A|--------------------------------------------------------|
D|0000---0000---00000000---0000---0000---00000000---00005~|

G|--------------------------------------------------|
D|--------------------------------------------------|
A|--------------------------------------------------|x2
D|0~------8~------3~------10~-----------------------|

G|--------------------------------------------------|
D|--------------------------------------------------|
A|---------------11111111--------33333333-1~-3~-----|x2
D|0~-----00000000--------33333333-------------------|
Show more