• Song:

    Altissonante

  • Artist:

    Agnus Graal

Intro Baixo  Am

        p p h p p  p  p t t p p h p p h p p p ttt t p t tt t p t  t t t

G---------7(b9)7-------------------7/9/7---------------------------------------
D-------7-------(b9)-7--5-----5-7(b9)------(b9)7-5-------5--------5----------------
A-----------------------5-7-------------------555x7---7-55x7---7--------------
E-----------------------------------------------------------------5-3-5-------

Verso 2x

Am

 t t t  p p h    p  p  t t p p h   p h  t t p p p h  p p  t  p p t t  p 

G----------------------------------5/7----------------------------------------
D---------5/7/5--------------5/7/5------------5/7/5----------7-5----5-(b9)------
A-------3--------7--5------3----------------3--------7--5-------5-7-----------
E-5-5-5----------------5-5--------------5-5---------------5-------------------

G

 t t t  p p h    p  p  t t p p h   p h  t t p p p h  p p  t  p p t  t  p 

G----------------------------------2/3---------------------------------5------
D---------3/5/3--------------3/5/3------------3/5/3----------5-3---5-7--------
A-------2--------5--3------2----------------2--------5--3-------5-------------
E-3-3-3----------------3-3--------------3-3---------------3-------------------


Tema 3x   Em                         Frase (tem varia??es)   

     t   t    t   t    t t t  t  t   t t p

G----------------------------------------5------------------------------------
D------------------------------------5/7--------------------------------------
A----7---5----3---2-----------------------------------------------------------
E----------------------5-5-5--3--5--------------------------------------------


Verso  para Solo de Guitarra

                       
       Frase            Em  F  (Com Varia??es)  18 X
   
      p p p h p      t t t t p   t h h  p p  t t t p h p  p h p p h
G----------------  ------------------------------------3----------------------
D-----7-5--------  ----------2---2/4/2-------------3/5----3/5/3---------------
A---------5/7-5--  --------2------------4-2---------------------5-3-----------
E----------------  --0-0-0-------------------1-1-1----------------------------


Tema 3x

Solo de Piano

Tema 2x

Verso 1x

Tema 3x
Show more