• Song:

    Bliss

  • Artist:

    Aiden

  • Album:

    Conviction

Intro:
E|-----------------------------------------------------------------|
B|-----------------------------------------------------------------|
G|---2---2---2---2---2---2---2---2---2---2---2---2---2---2---2---2-|
D|-0---0---3---3-----------3---3-----------3---3-----------3---3---|
A|-----------------3---3-----------1---1-----------0---0-----------|
D|-----------------------------------------------------------------|

(0:26)
             (3x)
E|---------------|-----------------------------|
B|---------------|-----------------------------|
G|---------5---5-|----------5-5h7p7------(0:40)|
D|-7-7-7-7---7---|-7-7-7-7---------------------|
A|---------------|-----------------------------|
D|---------------|-----------------------------|
  pm-------------------------------------------|

(0:47)
E|-x-x-x-x-x-x-x-|
B|-x-x-x-x-x-x-x-|
G|-x-x-x-x-x-x-x-|
D|-x-x-x-x-x-x-x-|
A|-x-x-x-x-x-x-x-|
D|-x-x-x-x-x-x-x-|

Refr?o: 
(0:48)
E|------------------|
B|------------------|
G|---5---5----------|
D|-7---7---7--5---5-|
A|--------------8---|
D|------------------|

E|------------|
B|------------|
G|----------5-|
D|-7--5--3--5-|
A|-7--5--3--3-|
D|-7--5--3----|

Verso 2:
E|------------------|
B|-------------5--5-|
G|-----------5--5---|
D|-7-7-7-7-7--------|
A|------------------|
D|------------------|

(2:18):
E|--------------------|
B|-------5--5---------|
G|-----5--5-----------|
D|-7-7--------7-7-7-7-|
A|--------------------|
D|--------------------|
Show more