• Song:

    Deactivate

  • Artist:

    Aiden

  • Album:

    Some Kind Of Hate

Tuning: DGCFAD
Tabbed by: JoshDropD


Intro
d|-----------------------------------------------------|
A|-----------------------------------------------------|
F|-----------------------------------------------------|
C|-------2--------------2--------7-7-7-77-(b9)-(b9)(b9)-(b9)9(b9)|
G|-------2--------------2--------7-7-7-77-(b9)-(b9)(b9)-(b9)9(b9)|
D|-2p0h2p0--0h2p0h2p0h2p0--0h2p0-5-5-5-55-7--7-7--7-77-|

d|-----------------------------------------------|
A|-----------------------------------------------|
F|----------------------------------------(b9)(b9)9(b9)|
C|-------2--------------2--------7-7-77---(b9)(b9)9(b9)|
G|-------2--------------2--------7-7-77---7-7-77-|
D|-2p0h2p0--0h2p0h2p0h2p0--0h2p0-5-5-55-5--------|

d|-----------------------------------------------------|
A|-----------------------------------------------------|
F|-----------------------------------------------------|
C|-------2--------------2--------7-7-7-77-(b9)-(b9)(b9)-(b9)9(b9)|
G|-------2--------------2--------7-7-7-77-(b9)-(b9)(b9)-(b9)9(b9)|
D|-2p0h2p0--0h2p0h2p0h2p0--0h2p0-5-5-5-55-7--7-7--7-77-|

d|---------------------------------------|
A|---------------------------------------|
F|-7777777777777777-88888888-11111111----|
C|-7777777777777777-9999999(b9)11111111-4~-|
G|-5555555555555555-77777777-88888888-4~-|
D|------------------------------------2~-|

Play nothing for the verse!

Pre-chorus
     ***************   *******    *******
d|----------------------------------------|
A|----------------------------------------|
F|-7-777777777777777-(b9)999999(b9)11-1111111-|
C|-7-777777777777777-(b9)999999(b9)11-1111111-|
G|-5-555555555555555-7-7777777-8--8888888-|
D|----------------------------------------|

Chorus: Repeat twice
d|---------------------|
A|---------------------|
F|-----------(b9)---7----|
C|-4----7----(b9)---7----|
G|-4----7----7x16-5x16-|
D|-2x16-5x16-----------|

Repeat Last half of intro

Repeat Verse (Play nothing...again)

Repeat Chorus twice

Interlude (Nothing played except two chords at 2:54)
d|------|
A|------|
F|-4~6~-|
C|-4~6~-|
G|-2~4~-|
D|------|

Repeat Chorus twice...again.

Outro
d|---------------------|
A|---------------------|
F|---------------------|
C|-12-12/111(b9)9/7-7-4-|
G|-xx-xx-x-x-x-x-x-x-4-|
D|-10-10(b9)9/7-7/5-5-2-|

There it is guys. I hope it's helpful!
Show more