• Song:

    Hey Baby

  • Artist:

    Alabama

  • Album:

    Dancin' On The Boulevar...

G|---0-2-|-3--2-0--5-3--3-----0-2- |
D|-3-----|.---------------3-3-----.| <-- repeat twice where noted
A|-------|.-----------------------.|
E|-------|-----------------------  |

then play this

G|-3-3-------3--------------0-2-|-3--2-0--5-3--3-----0-2-3--2-0--5-4-3--
D|------1-1-------3-3-3-3-3-----|----------------3-3--------------------
A|------------------------------|---------------------------------------
E|------------------------------|---------------------------------------

G|-----0-2-3--2-0--5-3--3-----0-2-|
D|-3-3--------------------3-3-----| <-- play this again, but where the 5 
A|--------------------------------|     F's are in the first part, play
E|--------------------------------|     this:
        
G|-3-3-3-2-2-1-1-0--00--0--00-5-3--33--3-33-0------------------
D|---------------------------------------------3333-3333-3333-3
A|-------------------------------------------------------------
E|-------------------------------------------------------------

G|------0-3------
D|-33333-3-------
A|----------4-3--
E|---------------

G|-3--2-0--5-3--3----0-2-3--2-0-----5-4-3------0-2-3--2-0--5-3--3--
D|----------------3-3----------------------3-3---------------------
A|-----------------------------------------------------------------
E|-----------------------------------------------------------------

G|----0-2-3-2-1-0--0-5-4-3---------0-2-3--2-0-------
D|-3-3--------------------3-3-3-3-3-----------------
A|---------------------------------------------4-3--
E|--------------------------------------------------

G|-0-----0-2-3--2-0-----------0-2-3--2-0--5-3--3------0-2|3-3-----3
D|---3-3------------------3-3---------------------3-3----|----1-2--
A|-------------------4-3-------------------------------------------
E|-----------------------------------------------------------------

G|-------------------------------------------------------3-3-----3------
D|-3-3-3-3-3-3-3-3-3-3-3-3-3-3-3-3-3-3-3-3-3-3-3-3-3-3-------1-1--------
A|----------------------------------------------------------------1-11-1
E|----------------------------------------------------------------------



this is my first tab, so bear with me if its wrong...play around with it and
figure it out if something's not right
Show more