• Song:

    Im In A Hurry

  • Artist:

    Alabama

-----------------------------------------------------------------------------
	  I'm In A Hurry (And Don't Know Why) - Alabama (BASS)
                       
-----------------------------------------------------------------------------
Tabbed by: Scotto10

Tuning: Standard

=============================================================================

Bass




     W                   W                   W                 
G||-------------------|-------------------|-------------------|
D||-------------------|-------------------|-------------------|
A||-------------------|-------------------|-------------------|
E||-------------------|-------------------|-------------------|


  W                   W                   W                   W                 
-------------------|-------------------|-------------------|-------------------|
-------------------|-------------------|-------------------|-------------------|
-------------------|-------------------|-------------------|-------------------|
-------------------|-------------------|-------------------|-------------------|


  W                   E  E  H.              E  E  H.            
-------------------|---------------------|---------------------|
-------------------|---------------------|---------------------|
-------------------|---------------------|--7--7---------------|
-------------------|--5--5---------------|---------------------|


  E  E  H.              E  E  H.              E  E  H.            
---------------------|---------------------|---------------------|
---------------------|---------------------|---------------------|
--9--9---------------|--5--5---------------|---------------------|
---------------------|---------------------|--5--5---------------|


  E  E  H.              E  E  H.              E  Q    E  E  E  E  E   
---------------------|---------------------|-------------------------|
---------------------|---------------------|-------------------------|
--7--7---------------|--9--9---------------|--5--5----L--5--5--4--2--|
---------------------|---------------------|-------------------------|


  E  E  E  E  E  E  E  E     E  E  E  E  E  E  E  E   
--------------------------|--------------------------|
--------------------------|--------------------------|
--------------------------|--------------------------|
--5--5--5--5--5--5--5--5--|--0--0--0--0--0--0--0--0--|


  E  E  E  E  E  E  E  E     E  E  E  E  E  E  E  E   
--------------------------|--------------------------|
--------------------------|--------------------------|
--------------------------|--5--5--5--5--5--5--5--7--|
--2--2--2--2--2--2--2--2--|--------------------------|


  E  E  E  E  E  E  E  E     E  E  E  E  E  E  E   E   
--------------------------|---------------------------|
--------------------------|---------------------------|
--------------------------|---------------------------|
--5--5--5--5--5--5--5--5--|--0--0--0--5--5--5--5--/7--|


  E  E  E  E  E  E  E  E     E  E  E  E  E  E  E  E     E  E  H.            
--------------------------|--------------------------|---------------------|
--------------------------|--------------------------|---------------------|
--9--9--9--9--9--9--9--9--|--5--5--5--5--5--5--5--7--|---------------------|
--------------------------|--------------------------|--5--5---------------|


  E  E  H.              E  E  H.              E  E  H.            
---------------------|---------------------|---------------------|
---------------------|---------------------|---------------------|
--7--7---------------|--9--9---------------|--5--5---------------|
---------------------|---------------------|---------------------|


  E  E  H.              E  E  H.              E  E  H.            
---------------------|---------------------|---------------------|
---------------------|---------------------|---------------------|
---------------------|--7--7---------------|--9--9---------------|
--5--5---------------|---------------------|---------------------|


  E  Q    E  E  E  E  E     E  E  E  E  E  E  E  E     E  E  E  E  E  E  E  E   
-------------------------|--------------------------|--------------------------|
-------------------------|--------------------------|--------------------------|
--5--5----L--5--5--4--2--|--------------------------|--------------------------|
-------------------------|--5--5--5--5--5--5--5--5--|--0--0--0--0--0--0--0--0--|


  E  E  E  E  E  E  E  E     E  E  E  E  E  E  E  E   
--------------------------|--------------------------|
--------------------------|--------------------------|
--------------------------|--5--5--5--5--5--5--5--7--|
--2--2--2--2--2--2--2--2--|--------------------------|


  E  E  E  E  E  E  E  E     E  E  E  E  E  E  E   E   
--------------------------|---------------------------|
--------------------------|---------------------------|
--------------------------|---------------------------|
--5--5--5--5--5--5--5--5--|--0--0--0--5--5--5--5--/7--|


  E  E  E  E  E  E  E  E     E  E  E  E  E  E  E  E   
--------------------------|--------------------------|
--------------------------|--------------------------|
--9--9--9--9--9--9--9--9--|--5--5--5--5--5--5--5--7--|
--------------------------|--------------------------|


  E  E  E  E  E  E  E  E     E  E  E  E  E  E  E  E     W                 
--------------------------|--------------------------|-------------------|
--------------------------|--------------------------|-------------------|
--------------------------|--------------------------|--7----------------|
--5--5--5--5--5--5--5--5--|--5--5--5--5--5--5--5--5--|-------------------|


  W                   W                   W                   W                 
-------------------|-------------------|-------------------|-------------------|
-------------------|-------------------|-------------------|-------------------|
--5----------------|-------------------|-------------------|-------------------|
-------------------|--5----------------|--0----------------|--2----------------|


  W                   W                   E  E  E  E  E  E  E  E   
-------------------|-------------------|--------------------------|
-------------------|-------------------|--------------------------|
--5----------------|-------------------|--------------------------|
-------------------|--5----------------|--0--0--0--0--0--0--0--0--|


  E  E  E  E  E  E  E  E     E  E  E  E  E  E  E  E   
--------------------------|--------------------------|
--------------------------|--------------------------|
--------------------------|--------------------------|
--5--5--5--5--5--5--5--5--|--0--0--0--0--0--0--0--0--|


  E  E  E  E  E  E  E  E     E  E  E  E  E  E  E  E   
--------------------------|--------------------------|
--------------------------|--------------------------|
-----------------------5--|--5--5--5--5--5--4--2--0--|
--2--2--2--2--2--2--2-----|--------------------------|


  E  E  E  E  E  E  E  E     E  E  E  E  E  E  E   E   
--------------------------|---------------------------|
--------------------------|---------------------------|
--------------------------|---------------------------|
--5--5--5--5--5--5--5--5--|--0--0--0--0--5--5--5--/7--|


  E  E  E  E  E  E  E  E     E  E  E  E  E  E  E  E     Q    H.            
--------------------------|--------------------------|--------------------|
--------------------------|--------------------------|--------------------|
--9--9--9--9--9--9--9--5--|--5-----0--4--5--5--4--2--|--------------------|
--------------------------|-----2--------------------|--5-----------------|


  W                   W                   W                 
-------------------|-------------------|-------------------|
-------------------|-------------------|-------------------|
-------------------|-------------------|-------------------|
-------------------|-------------------|-------------------|


  E  E  H.              W                   H        H         
---------------------|-------------------|--------------------|
---------------------|-------------------|--------------------|
---------------------|-------------------|--5--------4--------|
--5--5---------------|-------------------|--------------------|


  H        E  E  E  E     E  E  E  E  E  E  E  E     E  E  E  E  E  E  E  E   
-----------------------|--------------------------|--------------------------|
-----------2--2--2--2--|--------------------------|--------------------------|
--2--------------------|--------------------------|--------------------------|
-----------------------|--5--5--5--5--5--5--5--5--|--0--0--0--0--0--0--0--0--|


  E  E  E  E  E  E  E  E     E  E  E  E  E  E  E  E   
--------------------------|--------------------------|
--------------------------|--------------------------|
--------------------------|--5--5--5--5--5--5--4--2--|
--2--2--2--2--2--2--2--0--|--------------------------|


  E  E  E  E  E  E  E  E     E  E  E  E  E  E  E  E   
--------------------------|--------------------------|
--------------------------|--------------------------|
--------------------------|--------------------------|
--5--5--5--5--5--5--5--5--|--0--0--0--0--5--5--0--2--|


  E  E  E  E  E  E  E  E     E  E  E  E  E  E  E  E   
--------------------------|--------------------------|
--------------------------|--------------------------|
--------------------------|--5--5--5--5--5--5--7--7--|
--2--2--2--2--2--2--2--0--|--------------------------|


  E  E  E  E  E  E  E  E     E  E  E  E  E  E  E  E   
--------------------------|--------------------------|
--------------------------|--------------------------|
--------------------------|--------------------------|
--5--5--5--5--5--5--5--5--|--0--0--0--0--0--0--0--0--|


  E  E  E  E  E  E  E  E     E  E  E  E   E  E  E  E   
--------------------------|---------------------------|
--------------------------|---------------------------|
--------------------------|--5--5--5--5--/5--5--4--2--|
--2--2--2--2--2--2--2--0--|---------------------------|


  E  E  E  E  E  E  E  E     E  E  E  E  E  E  E  E   
--------------------------|--------------------------|
--------------------------|--------------------------|
--------------------------|--------------------------|
--5--5--5--5--5--5--5--5--|--0--0--0--0--5--5--0--2--|


  E  E  E  E  E  E  E  E     E  E  E  E  E  E  E  E                           
--------------------------|--------------------------|-----|-----|-----|-----|
--------------------------|--------------------------|-----|-----|-----|-----|
--------------------------|--5--5--5--5--5--5--4--2--|-----|-----|-----|-----|
--2--2--2--2--2--2--2--0--|--------------------------|-----|-----|-----|-----|


-----|-----|-----|-----||
-----|-----|-----|-----||
-----|-----|-----|-----||
-----|-----|-----|-----||




Duration Legend
---------------
W - whole
H - half
Q - quarter
E - 8th
S - 16th
T - 32nd
X - 64th
. - note dotted
|-n-|  - n-tuplets


Tablature Legend
----------------
L - tied note
x - dead note
g - grace note
(n) - ghost note
> - accentuded note
NH - natural harmonic
AH - artificial harmonic
TH - tapped harmonic
SH - semi harmonic
PH - pitch harmonic
h - hammer on
p - pull off
b - bend
br - bendRelease
pb - preBend
pbr - preBendRelease
brb - bendReleaseBend
\n/ - tremolo bar dip
\n - tremolo bar dive
-/n - tremolo bar Release up
/n\ - tremolo bar inverted dip
/n - tremolo bar return
-\n - tremolo bar Release down
S - shift slide
s - legato slide
/ -  slide into from below or out of upwards
\ -  slide into from above or out of downwards
~ - vibrato
W - wide vibrato
tr - trill
TP - tremolo picking
T - tapping
S - slap
P - pop
< - fade in
^ - brush up
v - brush down
Show more