• Song:

    Words At Twenty Paces

  • Artist:

    Alabama

  • Album:

    Mountain Music

-----------------------------------------------------------------------------
	       Words At Twenty Paces - Alabama (BASS)
                       
-----------------------------------------------------------------------------
Tabbed by: Scotto10

Tuning: Standard

=============================================================================

Bass



G||-------|-------|-------|-------|-------|-------|-------|
D||-------|-------|-------|-------|-------|-------|-------|
A||-------|-------|-------|-------|-------|-------|-------|
E||-------|-------|-------|-------|-------|-------|-------|


  E  E  E  E  E  E  E  E     Q    Q    E  Q.        Q    E  S S Q    E  E   
--------------------------|----------------------|----------3-5-3----------|
-----5--5--5--5--3-----5--|----------------------|-------------------------|
--------------------6-----|--3----3----6--3------|--3----------------------|
--------------------------|----------------------|----------------------3--|


  Q    Q    E  Q.        Q    E  S S Q    E  E     Q.     E  H         
----------------------|------------5-3----------|---------------------|
----------------------|-------------------------|---------------------|
--3----3----6--3------|--3----------------------|--3------3--3--------|
----------------------|-------------------------|---------------------|


  E  E  E  E  H           Q.     E  H           E  E  E  E  H         
-----------------------|---------------------|-----------------------|
-----------------------|---------------------|-----------------------|
-----3-----3--3--------|--1------1--1--------|-----1-----1--1--------|
-----------------------|---------------------|-----------------------|


  Q.     E  H           E  E  E  E  H           Q.     E  H         
---------------------|-----------------------|---------------------|
---------------------|-----6-----------------|---------------------|
---------------------|-----------------------|---------------------|
--4------4--4--------|-----------4--4--------|--3------3--3--------|


  E  E  E  E  H           Q.     E  H           E  E  E  E  H         
-----------------------|---------------------|-----------------------|
-----------------------|---------------------|-----------------------|
-----------------------|--3------3--3--------|-----3-----3--3--------|
-----3-----3--3--------|---------------------|-----------------------|


  Q.     E  H           E  E  E  E  H           Q.     E  H         
---------------------|-----------------------|---------------------|
---------------------|-----------------------|---------------------|
--1------1--1--------|-----1-----1--1--------|---------------------|
---------------------|-----------------------|--4------4--4--------|


  E  E  E  E  H           Q.     E  H           Q    E  E  E  E  E  E   
-----------------------|---------------------|-------------------------|
-----------------------|---------------------|-------------------------|
-----------------------|---------------------|-------------------6--5--|
-----4-----4--4--------|--3------3--3--------|--3-------3--3--1--------|


  Q    Q    Q    Q       Q    E  E  H           Q    Q    H         
-------5--------------|-------5--------------|---------------------|
----------------------|----------------------|---------------------|
--3---------3---------|--3-------3--3--------|--1---------1--------|
----------------------|----------------------|---------------------|


  Q    Q    Q.     E     Q    Q    H           Q    Q    Q.     E   
----------------------|---------------------|----------------------|
----------------------|---------------------|----------------------|
--1---------1---------|---------------------|----------------------|
----------------------|--4---------4--------|--4---------4---------|


  Q    Q    H           Q    E  E  E  E  E  E     Q    E  E  H         
---------------------|-------------------------|-------5--------------|
---------------------|-------------------------|----------------------|
---------------------|-------------------6--5--|--3----------3--------|
--3---------3--------|--3-------3--3--1--------|----------------------|


  Q    E  E  H           Q    Q    Q.     E     Q    Q    Q.     E   
-------5--------------|----------------------|----------------------|
----------------------|----------------------|----------------------|
--3-------3--3--------|--1---------1---------|--1---------1---------|
----------------------|----------------------|----------------------|


  Q    Q    Q.     E     Q    Q    E  E  E  E     W                 
----------------------|------------------------|-------------------|
----------------------|------------------------|-------------------|
----------------------|------------------------|-------------------|
--4---------4---------|--4---------4--4--4--4--|--3----------------|


  Q.     H        E     Q.     H        E     Q.     E  Q    Q     
---------------------|---------------------|----------------------|
---------------------|---------------------|----------------------|
--3------3--------L--|--3------------------|--3------3--3---------|
---------------------|---------3--------L--|----------------------|


  H        H           Q.     E  H           Q.     E  H         
--------------------|---------------------|---------------------|
--------------------|---------------------|---------------------|
--3--------1--------|---------------------|---------------------|
--------------------|--4------4--4--------|--4------4--4--------|


  Q.     E  H           Q.     E  H           Q.     E  H         
---------------------|---------------------|---------------------|
---------------------|---------------------|---------------------|
--6------6--6--------|--6------6--6--------|---------------------|
---------------------|---------------------|--6------6--6--------|


  Q.     E  H           Q.      Q     E   Q        Q.     Q    E  Q     
---------------------|-------------------------|-----------------------|
---------------------|-------------------------|-----------------------|
---------------------|-------------------------|--10------8----L--6----|
--7------7--7--------|--8------10-----L--11----|-----------------------|


  Q.     E  H           Q.     E  H           Q.     E  H         
---------------------|---------------------|---------------------|
---------------------|---------------------|---------------------|
---------------------|---------------------|--6------6--6--------|
--4------4--4--------|--4------4--4--------|---------------------|


  Q.     E  H           Q.     E  H           Q.     E  H         
---------------------|---------------------|---------------------|
---------------------|---------------------|---------------------|
--6------6--6--------|---------------------|---------------------|
---------------------|--6------6--6--------|--6------6--6--------|


  Q.     E  H           Q.     E  H           Q.     E  E  E  E  E   
---------------------|---------------------|------------------------|
---------------------|---------------------|------------5--3--1-----|
---------------------|---------------------|---------------------1--|
--3------3--3--------|--3------3--3--------|--3------3--------------|


  Q.     E  H           H.           Q       Q    E  E  E  Q.      
---------------------|--------------------|-----------------------|
---------------------|--------------------|-------------1---------|
--3------3--3--------|--L-----------------|--3----3--3-----3------|
---------------------|--------------------|-----------------------|


                                                    |----3----|     
  H        H           W                   H        Q    Q    Q     
--------------------|--5----------------|--L--------8----7----5----|
--------------------|-------------------|--------------------------|
--L-----------------|-------------------|--------------------------|
--------------------|-------------------|--------------------------|


  H        H           H        H           W                 
--------------------|--------------------|-------------------|
--8--------8--------|--------------------|-------------------|
--------------------|--------------------|-------------------|
--------------------|--6--------6--------|--4----------------|


  W                   W                   H        E  E  E  E   
-------------------|-------------------|-----------------------|
-------------------|-------------------|-----------------------|
-------------------|-------------------|--------------------6--|
--4----------------|--3----------------|--L--------3-----1-----|


  W                   Q.     E  H           Q.     E  H         
-------------------|--5------5--5--------|---------------------|
-------------------|---------------------|--8------8--8--------|
--3----------------|---------------------|---------------------|
--8----------------|---------------------|---------------------|


  Q.     E  H           W                   Q.     E  H         
---------------------|-------------------|---------------------|
--8------8--8--------|--6----------------|------------6--------|
---------------------|-------------------|---------------------|
---------------------|-------------------|--4------4-----------|


  W                   E  E  E  E  E  E  E  E     Q    Q    Q    Q     
-------------------|--------------------------|-------5--------------|
-------------------|--------------------------|----------------------|
-------------------|--------------------6--5--|--3---------3---------|
--3----------------|--3--3--3--3--3--1--------|----------------------|


  Q    E  E  H           Q    Q    H           Q    Q    Q.     E   
-------5--------------|---------------------|----------------------|
----------------------|---------------------|----------------------|
--3-------3--3--------|--1---------1--------|--1---------1---------|
----------------------|---------------------|----------------------|


  Q    Q    H           Q    Q    Q.     E     Q    Q    Q.     E   
---------------------|----------------------|----------------------|
---------------------|----------------------|----------------------|
---------------------|----------------------|----------------------|
--4---------4--------|--4---------4---------|--3---------3------1--|


  E  E  E  E  E  E  E  E     Q    Q    Q    Q       Q    E  E  H         
--------------------------|-------5--------------|-------5--------------|
--------------------------|----------------------|----------------------|
--------------------6--5--|--3---------3---------|--3-------3--3--------|
--3--3--3--3--3--1--------|----------------------|----------------------|


  Q    Q    H           Q    Q    Q.     E     Q    Q    H         
---------------------|----------------------|---------------------|
---------------------|----------------------|---------------------|
--1---------1--------|--1---------1---------|---------------------|
---------------------|----------------------|--4---------4--------|


  Q    Q    Q.     E     W                   H        H         
----------------------|-------------------|--------------------|
----------------------|-------------------|--------------------|
----------------------|-------------------|--3--------3--------|
--4---------4---------|--3----------------|--------------------|


  Q.     Q    E  E  E     Q    Q    Q    Q       Q    E  E  H         
-----------------------|-------5--------------|-------5--------------|
-----------------------|----------------------|----------------------|
--3------3----3--3--3--|--3---------3---------|--3-------3--3--------|
-----------------------|----------------------|----------------------|


  Q    Q    H           Q    Q    Q.     E     Q    Q    H         
---------------------|----------------------|---------------------|
---------------------|----------------------|---------------------|
--1---------1--------|--1---------1---------|---------------------|
---------------------|----------------------|--4---------4--------|


  Q    Q    Q.     E     Q    Q    Q.     E     E  E  E  E  E  E  E  E   
----------------------|----------------------|--------------------------|
----------------------|----------------------|--------------------------|
----------------------|----------------------|--------------------6--5--|
--4---------4---------|--3---------3------1--|--3--3--3--3--3--1--------|


  Q.     E  H           Q.     E  H           Q.     E  Q.     E   
---------------------|---------------------|----------------------|
---------------------|---------------------|----------------------|
--3---------3--------|--3---------3--------|--1---------1---------|
---------------------|---------------------|----------------------|


  Q    Q    Q.     E     Q    Q    Q.     E     Q    Q    Q.     E   
----------------------|----------------------|----------------------|
----------------------|----------------------|----------------------|
--1---------1---------|----------------------|----------------------|
----------------------|--4---------4---------|--4---------4---------|


  H        H           Q.     E  H           Q.     E  Q.     E   
--------------------|---------------------|----------------------|
--------------------|---------------------|----------------------|
--------------------|--3---------3--------|--3-------------------|
--3--------3--------|---------------------|---------3--3---------|


  Q.     E  H           E  E  E  E  H           Q.     E  H         
---------------------|-----------------------|---------------------|
---------------------|-----------------------|---------------------|
--3------3--3--------|-----3-----------------|--3------3--3--------|
---------------------|-----------3--3--------|---------------------|


  E  E  E  E  H           Q.     E  H           E  E  E  E  H         
-----------------------|---------------------|-----------------------|
-----------5--5--------|---------------------|-----------------------|
-----3-----------------|--3------3--3--------|-----3-----------------|
--------------3--------|---------------------|-----------3--3--------|


  Q.     E  H           E  E  E  E  H           Q.     E  H         
---------------------|-----------------------|---------------------|
---------------------|-----------5-----------|---------------------|
--3------3--3--------|-----3-----------------|--3------3--3--------|
---------------------|--------------3--------|---------------------|


  E  E  E  E  H           Q.     E  H           E  E  E  E  H         
-----------------------|---------------------|-----------------------|
-----------5-----------|---------------------|-----------5-----------|
-----3-----------------|--3------3--3--------|-----3-----------------|
--------------3--------|---------------------|--------------3--------|


  Q.     E  H           E  E  E  E  H                                  
---------------------|-----------------------|-----------|-----------||
---------------------|-----------5-----------|-----------|-----------||
--3------3--3--------|-----3-----------------|-----------|-----------||
---------------------|--------------3--------|-----------|-----------||




Duration Legend
---------------
W - whole
H - half
Q - quarter
E - 8th
S - 16th
T - 32nd
X - 64th
. - note dotted
|-n-|  - n-tuplets


Tablature Legend
----------------
L - tied note
x - dead note
g - grace note
(n) - ghost note
> - accentuded note
NH - natural harmonic
AH - artificial harmonic
TH - tapped harmonic
SH - semi harmonic
PH - pitch harmonic
h - hammer on
p - pull off
b - bend
br - bendRelease
pb - preBend
pbr - preBendRelease
brb - bendReleaseBend
\n/ - tremolo bar dip
\n - tremolo bar dive
-/n - tremolo bar Release up
/n\ - tremolo bar inverted dip
/n - tremolo bar return
-\n - tremolo bar Release down
S - shift slide
s - legato slide
/ -  slide into from below or out of upwards
\ -  slide into from above or out of downwards
~ - vibrato
W - wide vibrato
tr - trill
TP - tremolo picking
T - tapping
S - slap
P - pop
< - fade in
^ - brush up
v - brush down
Show more