• Song:

    Coffee Shop Soundtrack

  • Artist:

    All Time Low

  • Album:

    Put Up Or Shut Up (Delu...

Bass enters at 0:05
E|-----------------------00007777|
A|-----4-4444000044440000--------|
D|-------------------------------|
G|-------------------------------| x2

Verse:

E|---------0-----7777-24--------|
A|444404444-44440-------24----24|
D|------------------------2424--|
G|------------------------------| x2 (Except for the 24 part.)

Chorus:

E|00000000---------77----------------0------------|
A|--------000000044--0000000000--4444-------------|
D|------------------------------------------------|
G|------------------------------------------------|

Second Verse:

E|-------------------------------------------------------------------|
A|2222222222222244440000000222222200000222222233333334444444000002222 |
D|-------------------------------------------------------------------|
G|-------------------------------------------------------------------|

Chorus

Bridge:

E|99998888-12-12-12-12---99998888---------|
A|-------------------0000--------000000000|
D|----------------------------------------|
G|----------------------------------------|x2
Bass comes back in at 2:20
E|------------------77--------------------------------------|
A|1-slidedown55-22-44--555555555slidedown12-12-12-12-12-12--|
D|----------------------------------------------------------|
G|----------------------------------------------------------|

Chorus

end on A
Show more