• Song:

    Before Tomorrow Comes

  • Artist:

    Alter Bridge

  • Album:

    Blackbird

Alter Bridge - Before Tomorrow Comes
mark-tremonti.com and alterbridgeband.net
[abbforums.net/forums]
Tabbed by:reuben   
Email:rubes_intheleast88@hotmail.com


Tuning:A#G#C#F#A#D# low E dropped to a B (same as broken wings) and then all strings down half a step

Enjoy!

Intro
gtr1 (clean)
eb|-0-------0-----0-----0-0-0-0---0-------0-------0---0-0-0-0-0-0-0-|
bb|-0-------0---0-0-----0-0-0-0-0-0-----0-0-----0-0---0-0-0-0-0-0-0-|
gb|-14------14161413--------13141311---11\8-----------8/13131311--11|
db|-----------------------------------------------------------------|
Ab|-----------------------------------------------------------------|
Bb|-----------------------------------------------------------------|
gtr2         dist                       fade in<<<<<<<<<<<<<<
eb|-----------------------------------------------------------------|
bb|-----------------------------------------------------------------|
gb|-----------------------------------------------------------------|
db|-----------------------------------------------------------------|
Ab|-------------------------------------2---------------------------|
Bb|-------------------------------------0---------------------------|


gtr1                                      (dist)
eb|-0-------0-----0-------0-0-0-0-0---------------------------------|
bb|-0-------0---0-0-------0-0-0-0-0---------------------------------|
gb|-14------14161413--------13141311----------------4/6/8-9---8---6-|
db|-------------------------------------------------x-----x---x---x-|
Ab|-----------------------------------------x\\\\\\-2/4/6-7---6---4-|
Bb|-----------------------------------------x\\\\\\-----------------|
Gtr2<<<<<

                
Show more