• Song:

    Find The Real

  • Artist:

    Alter Bridge

  • Album:

    One Day Remains

Find the Real ? Alter Bridge (4 String)

This is for everyone who wants to play this class bass line, that cant afford a 5 string 
(like me lol) I think its pretty much right, if its not write a better one yourself and 
use that instead : P

[Intro]
G/ -----------------------------------------------------------------------|
D/ ---------------------------------------------------------------3~~~----|
A/ --------4-3-2------------------2----------------2-----2-4--------------|
D/ --0---0-------0-6---0-5-3-5---3---3-0-3-5-------7----------------------|

G/ ----------------------------------------------------------------------|
D/ ----------------------------------------------------------------------|
A/ --------4-3-2------------------2----------------2-----2-4-------------|
D/ --0---0-------0-6---0-5-3-5---3---3-0-3-5-------7------3---1~~--------|

[Verse]
G/ ------------------------------------------------------------------------|
D/ ---------------------------------------------------------------3~~~-----|
A/ --------4-3-2------------------2----------------2-----2-4---------------|    x4
D/ --0---0-------0-6---0-5-3-5---3---3-0-3-5-------7-----------------------|

[Chorus]
G/ -----------------------------------------------------------------------|
D/ -----------------------------------------------------------------------|
A/ --0--0-0-0-0--------------------2--2-2-2-2-----------------------------|
D/ ---------------1-2-3--3-3-3-3---------------3-4-5--5-5-5-5-5-----------|

G/ --------------------------------------------------------------------------|
D/ --------------------------------------------------------------------------|
A/ --------4--4--------------------4--4--------------------------------------|    x2
D/ --0--0---------7-6-5-3--0--0---------7-6-5-3------------------------------|

[Verse]
G/ ------------------------------------------------------------------------|
D/ ---------------------------------------------------------------3~~~-----|
A/ --------4-3-2------------------2----------------2-----2-4---------------|    x4
D/ --0---0-------0-6---0-5-3-5---3---3-0-3-5-------7-----------------------|

[Chorus]
G/ -----------------------------------------------------------------------|
D/ -----------------------------------------------------------------------|
A/ --0--0-0-0-0--------------------2--2-2-2-2-----------------------------|
D/ ---------------1-2-3--3-3-3-3---------------3-4-5--5-5-5-5-5-----------|

G/ --------------------------------------------------------------------------|
D/ --------------------------------------------------------------------------|
A/ --------4--4--------------------4--4--------------------------------------|    x2
D/ --0--0---------7-6--5-3--0--0---------7-6--5-3----------------------------|

[Bridge/Guitar Solo]
G/ ---------------------------------------------------------------------------|
D/----------------------------------------------------------------------------|
A/----------------------------------------------------------------------------|    x6
D/--0----7-6--5-3-0----7-6--5-3-0----7-6--5-0-3~~--7-6--5-0-5-----------------|

[Chorus]
G/ -----------------------------------------------------------------------|
D/ -----------------------------------------------------------------------|
A/ --0--0-0-0-0--------------------2--2-2-2-2-----------------------------|
D/ ---------------1-2-3--3-3-3-3---------------3-4-5--5-5-5-5-5-----------|

G/ --------------------------------------------------------------------------|
D/ --------------------------------------------------------------------------|
A/ --------4--4--------------------4--4--------------------------------------|    x4
D/ --0--0---------7-6--5-3--0--0---------7-6--5-3----------------------------|

[End]
G/ -----------------------------------------------------------------------|
D/ ---------------------------------------------------------------3~~~----|
A/ --------4-3-2------------------2----------------2-----2-4--------------|
D/ --0---0-------0-6---0-5-3-5---3---3-0-3-5-------7----------------------|

G/ ----------------------------------------------------------------------|
D/ ----------------------------------------------------------------------|
A/ --------4-3-2------------------2----------------2-----2-4-------------|
D/ --0---0-------0-6---0-5-3-5---3---3-0-3-5-------7------3-3------------|

G/ -----------------------------------------------------------------------|
D/ -----------------------------------------------------------------------|
A/ -----------------------------------------------------------------------|
D/ -x-x--1-(hold on)------------------0-(hold on)--------0-(cut off)------|


Tabbed by Matty Jackson ^^
Show more