• Song:

    Joy To The World

  • Artist:

    Aly And Aj

  • Album:

    Acoustic Hearts Of Wint...

-------------------------------------------------------------------------------
			     joy to the world - Aly and AJ
-------------------------------------------------------------------------------

Tabbed By : alpay
e-mail: alpizle@yahoo.com

Tuning: normal

G|-0---------------------00~---------------------------------------------------------|
D|---4-2-0----------2-44-------------------------------------------------------------|
A|---------3-2-0---3-----------------------------------------------------------------|
E|---------------3-------------------------------------------------------------------|
play x2
G|-00------------------------------------------------------------------------------|
D|----44-22------------------------------------------------------------------------|
A|----------22---------------------------------------------------------------------|
E|---------------------------------------------------------------------------------|

G|----------------------0----------------|
D|------------------------20-0-----------|
A|-3----023-3----023-3---------20--------|
E|--333------333------3-----------3--3x--|
thats mainly it so enjoy
Show more