• Song:

    Audrey Start The Revolution

  • Artist:

    Anberlin

INTRO:

Guitar One
e|--------------------------------------|
B|--------------------------------------|
G|--------------------------------------|
D|--10~------7~------10~------7---------|x4
A|-------7-8-----8-7------7-8---10-8-7--|
D|--------------------------------------|

Guitar Two
e|--------------------------------------------------------------------|
B|--------------------------------------------------------------------|
G|--------------------------------------------------------------------|
D|-0000000000000000222222222222222233333333333333338888888888888888---|
A|-0000000000000000222222222222222233333333333333338888888888888888---|
D|-0000000000000000222222222222222233333333333333338888888888888888---|

VERSE:
e|---------------------------------|
B|----10-10------10-10------1010---|
G|----10-10------10-10------1010---|
D|----12-12------12-12------1212---|
A|---------------------------------|
D|-00---------00---------00--------|
pm...         ..         ..

e|----------------------------------------------------------------|
B|----------------------------------------------------------------|
G|--9---9---9---9---10---10---10---10---14----14----14----14------|
D|----7---7---7---7----8----8----8----8----12----12----12----12---|
A|----------------------------------------------------------------|
D|----------------------------------------------------------------|
pm... . . . . . . . . . . . . . . . . . . . . . . . . . . . . .

e|----------------------------|
B|----------------------------|
G|--12----12----12----12------|
D|-----12----12----12----12---|
A|----------------------------|x2
E|----------------------------|
pm....  .  .  .  .  .  .  .

e|---------------------------------|
B|----10-10------10-10------1010---|
G|----10-10------10-10------1010---|
D|----12-12------12-12------1212---|
A|---------------------------------|
D|-00---------00---------00--------|
pm...         ..         ..

e|----------------------------------------------------------------|
B|----------------------------------------------------------------|
G|--9---9---9---9---10---10---10---10---14----14----14----14------|
D|----7---7---7---7----8----8----8----8----12----12----12----12---|
A|----------------------------------------------------------------|
D|----------------------------------------------------------------|
pm... . . . . . . . . . . . . . . . . . . . . . . . . . . . . .

e|----------------------------|
B|----------------------------|
G|--12----12----12----12------|
D|-----12----12----12----12---|
A|----------------------------|x2
E|----------------------------|
pm....  .  .  .  .  .  .  .

e|---------------------------------|
B|----10-10------10-10------1010---|
G|----10-10------10-10------1010---|
D|----12-12------12-12------1212---|
A|---------------------------------|
D|-00---------00---------00--------|
pm...         ..         ..

PRE CHORUS:
e|--------------------------------------|
B|--------------------------------------|
G|--------------------------------------|
D|-7-7-7-7-8-8-8-8-10-10-101010101010---|
A|-7-7-7-7-8-8-8-8-10-10-101010101010---|
D|-7-7-7-7-8-8-8-8-10-10-101010101010---|
pm.. . . . . . . . .  . 

CHORUS:
e|-----------------------------------------------------------------------|
B|-----------------------------------------------------------------------|
G|------------------55555555333333331010109997-777777775555555533333333--|
D|--333333332222222255555555333333331010109997-777777775555555533333333--|x2
A|--333333332222222233333333111111118-8-8-7775-555555553333333311111111--|
D|--3333333322222222-----------------------------------------------------|

VERSE:
e|---------------------------------|
B|----10-10------10-10------1010---|
G|----10-10------10-10------1010---|
D|----12-12------12-12------1212---|
A|---------------------------------|
D|-00---------00---------00--------|
pm...         ..         ..

e|----------------------------------------------------------------|
B|----------------------------------------------------------------|
G|--9---9---9---9---10---10---10---10---14----14----14----14------|
D|----7---7---7---7----8----8----8----8----12----12----12----12---|
A|----------------------------------------------------------------|
D|----------------------------------------------------------------|
pm... . . . . . . . . . . . . . . . . . . . . . . . . . . . . .

e|----------------------------|
B|----------------------------|
G|--12----12----12----12------|
D|-----12----12----12----12---|
A|----------------------------|x2
E|----------------------------|
pm....  .  .  .  .  .  .  .

e|---------------------------------|
B|----10-10------10-10------1010---|
G|----10-10------10-10------1010---|
D|----12-12------12-12------1212---|
A|---------------------------------|
D|-00---------00---------00--------|
pm...         ..         ..

e|----------------------------------------------------------------|
B|----------------------------------------------------------------|
G|--9---9---9---9---10---10---10---10---14----14----14----14------|
D|----7---7---7---7----8----8----8----8----12----12----12----12---|
A|----------------------------------------------------------------|
D|----------------------------------------------------------------|
pm... . . . . . . . . . . . . . . . . . . . . . . . . . . . . .

e|----------------------------|
B|----------------------------|
G|--12----12----12----12------|
D|-----12----12----12----12---|
A|----------------------------|x2
E|----------------------------|
pm....  .  .  .  .  .  .  .

e|---------------------------------|
B|----10-10------10-10------1010---|
G|----10-10------10-10------1010---|
D|----12-12------12-12------1212---|
A|---------------------------------|
D|-00---------00---------00--------|
pm...         ..         ..

PRE CHORUS:
e|-------------------------------|
B|-------------------------------|
G|-------------------------------|
D|-7-7-7-7-7-7-7-7-888810101010--|
A|-7-7-7-7-7-7-7-7-888810101010--|
D|-7-7-7-7-7-7-7-7-888810101010--|
pm.. . . . . . . . 

CHORUS:

e|-----------------------------------------------------------------------|
B|-----------------------------------------------------------------------|
G|------------------55555555333333331010109997-777777775555555533333333--|
D|--333333332222222255555555333333331010109997-777777775555555533333333--|
A|--333333332222222233333333111111118-8-8-7775-555555553333333311111111--|
D|--3333333322222222-----------------------------------------------------|

e|-----------------------------------------------------------------------|
B|-----------------------------------------------------------------------|
G|------------------55555555333333331010109997-77777777555555553333xxxx--|
D|--333333332222222255555555333333331010109997-77777777555555553333xxxx--|
A|--333333332222222233333333111111118-8-8-7775-55555555333333331111xxxx--|
D|--3333333322222222-----------------------------------------------------|

BRIDGE:
e|-----------------------------------------------------------|
B|-----------------------------------------------------------|
G|-----------------------------------------------------------|
D|--3-3~----10-10~----8-8~-----3-3~----10-10~---8-8~--xxxx---|
A|--3-3~----10-10~----8-8~-----3-3~----10-10~---8-8~--xxxx---|
D|--3-3~----10-10~----8-8~-----3-3~----10-10~---8-8~--xxxx---|

e|--------------------------------------------------------------------|
B|--------------------------------------------------------------------|
G|--------------------------------------------------------------------|
D|-0000000000000000222222222222222233333333333333338888888888888xxx---|
A|-0000000000000000222222222222222233333333333333338888888888888xxx---|
D|-0000000000000000222222222222222233333333333333338888888888888xxx---|

e|--------------------------------------------------------------------|
B|--------------------------------------------------------------------|
G|--------------------------------------------------------------------|
D|-0000000000000000222222222222222233333333333333338888888888888888---|
A|-0000000000000000222222222222222233333333333333338888888888888888---|
D|-0000000000000000222222222222222233333333333333338888888888888888---|

e|---------------------------------|
B|----10-10------10-10------1010---|
G|----10-10------10-10------1010---|
D|----12-12------12-12------1212---|
A|---------------------------------|
D|-00---------00---------00--------|
pm...         ..         ..

e|------------------------------|
B|------------------------------|
G|------------------------------|
D|-7-7-7-7-8-8-8-101010101010---|
A|-7-7-7-7-8-8-8 101010101010---|
D|-7-7-7-7-8-8-8-101010101010---|

e|-----------------------------------------------------------------------|
B|-----------------------------------------------------------------------|
G|------------------55555555333333331010109997-777777775555555533333333--|
D|--333333332222222255555555333333331010109997-777777775555555533333333--|x4
A|--333333332222222233333333111111118-8-8-7775-555555553333333311111111--|
D|--3333333322222222-----------------------------------------------------|
Show more