• Song:

    Autobahn

  • Artist:

    Anberlin

  • Album:

    Blueprints For City Fri...

Intro
Guitar 1
e----8----7----10---8---8-7-------------------------------------------------|
b-8-8--8-8--8-8--8-8-------8------------------------------------------------|
g---------------------------------------------------------------------------|
d---------------------------------------------------------------------------|
a---------------------------------------------------------------------------|
e---------------------------------------------------------------------------|

Guitar 2
e---------------------------------------------------------------------------|
g-5-----5---5-------5-------------------------------------------------------|
d-5-x16-5---5-x14---5-------------------------------------------------------|
a-3-----x---x-------2-------------------------------------------------------|
e-------3---5---------------------------------------------------------------|


Verse
Guitar 1 & Guitar 2
e---------------------------------------------------------------------------|
b---------------------------------------------------------------------------|
g-5-5-5-5-5-------------5-5-5-5-5-5-----------------------------------------|
d-5-5-5-5-5-3-3-3-3-3-3-5-5-5-5-5-5-3-3-3-3-3-------------------------------|
a-3-3-3-3-3-3-3-3-3-3-3-3-3-3-3-3-3-3-3-3-3-3-------------------------------|
e-----------1-1-1-1-1-1-------------1-1-1-1-1-------------------------------|

Pre-Chorus Guitar 1 & Guitar 2
e---------------------------------------------------------------------------|
b---------------------------------------------------------------------------|
g---------------------------------------------------------------------------|
d-7-----3-------------------------------------------------------------------|
a-7-----3-------------------------------------------------------------------|
e-5-----1-------------------------------------------------------------------|


Chorus
Both guitars (Second time,guitar 1 plays intro)
e---------------------------------------------------------------------------|
b---------------------------------------------------------------------------|
g-5-5-5-5-5-----------------------------------------------------------------|
d-5-5-5-5-5-3-3-3-3-3-7-7-7-7-7-3-3-3-3-3-----------------------------------|
a-3-3-3-3-3-3-3-3-3-3-7-7-7-7-7-3-3-3-3-3-----------------------------------|
e-----------1-1-1-1-1-5-5-5-5-5-1-1-1-1-1-----------------------------------|


2nd Verse
2nd chorus


bridge same as verse
Show more