• Song:

    Blame Me Blame Me

  • Artist:

    Anberlin

-------------------------------------------------------------------------------
                                          Blame Me! Blame Me! - Anberlin
-------------------------------------------------------------------------------
Tabbed by: SorryImAwesome.
Email: ...sorryimawesome@hotmail.com.

Tuning: Standard (E,A,D,G,B,e)

Guitar(s):
1 - Lead
2 - Rhythm

**UPDATE** 3/5/10
Fixed the bridge

Intro:
Guitar 1 (0:00):
e|-14-10-12-7~--14-10-12-7-5~--14-10-12-7~--14-10-12-7-10~-|
B|---------------------------------------------------------|
G|---------------------------------------------------------|
D|---------------------------------------------------------|
A|---------------------------------------------------------|
E|---------------------------------------------------------|

Guitar 2 (0:01)
e|--------------------------------|---------------------------------|
B|-33-333-333-222-333-333-333-333-|-----------------------------222-|
G|-44-444-444-222-444-444-444-222-|-444-444-444-----444-444-444-222-|
D|-44-444-444-222-444-444-444-000-|-555-555-555-444-555-555-555-222-|
A|-22-222-222-000-222-222-222-----|-555-555-555-555-555-555-555-000-|
E|--------------------------------|-333-333-333-222-333-333-333-----|

Verse 1 (0:13):
Play Guitar 2's Intro twice.

Chorus 1:
Guitar 1 (0:37) 
e|-------------------------------------------00----|
B|-33-22-00-33-22-00----00-33-22-00-33-22-00----00-|
G|-------------------22----------------------------|
D|-------------------------------------------------|
A|-------------------------------------------------|
E|-------------------------------------------------|2x

(0:48) "Leave me out of this..."
e|----------------5555--------------------|
B|-0000-2222-3333------0000-2222-55555555-|
G|----------------------------------------|
D|----------------------------------------|
A|----------------------------------------|
E|----------------------------------------|

(0:54)
e|-------------------------------------------00----|
B|-33-22-00-33-22-00----00-33-22-00-33-22-00----00-|
G|-------------------22----------------------------|
D|-------------------------------------------------|
A|-------------------------------------------------|
E|-------------------------------------------------|

Guitar 2:
Just play Guitar 2's intro part... twice.

Intro 1x

Verse 2 (1:13):
Guitar 1 (doesn't start until 1:24):
e|---------------------------------|
B|-7p0-5p0-3/5/7p0-5p0-3h5p3p0-2h3-|
G|---------------------------------|
D|---------------------------------|
A|---------------------------------|
E|---------------------------------|4x

Guitar 2:
Same as Verse 1.

Chorus 2 (1:38):
Guitar 1:
e|-------------------------------------|
B|-------------------------------------|
G|-4-----6-----7-----14----11----9-----|
D|-x(4x)-x(4x)-x(4x)-x(4x)-x(8x)-x(8x)-|
A|-2-----4-----5-----12----9-----7-----|
E|-------------------------------------|4x

Guitar 2:
...Same as Chorus 1.

Bridge (2:00):
Guitar 1:
e|----------------------------------------------------|
B|--------2------3------------------------------------|
G|-4------2------2------6-----7-----9-----11----14----|
D|-5(16x)-2(16x)-0(16x)-x(3x)-x(3x)-x(3x)-x(3x)-x(4x)-|
A|-5------0------0------4-----5-----7-----9-----12----|
E|-3--------------------------------------------------|

(2:12)
e|---------------2p0--------/12------|
B|--------2----------3------/14(16x)-|
G|-4------2----------2---------------|
D|-5(16x)-2(14x)-----0(16x)----------|
A|-5------0----------0---------------|
E|-3---------------------------------|

Guitar 2:
e|-----------------------------|-----------------------------|
B|--------2------3------3------|--------2------3-------------|
G|-4------2------4------2------|-4------2------2-------------|
D|-5(16x)-2(16x)-4(16x)-0(16x)-|-5(16x)-2(16x)-0(16x)-4(16x)-|
A|-5------0------2------0------|-5------0------0------5------|
E|-3---------------------------|-3--------------------2------|

Post-Bridge (2:24)
Guitar 1:
e|-------------------------------------------|
B|-33-22-00-33-22-00----00-33-22-00-33-22-00-|
G|-------------------22----------------------|
D|-------------------------------------------|
A|-------------------------------------------|
E|-------------------------------------------|

Guitar 2 (2:27):
e|---------------|
B|-33-33-33-33-3-|
G|-44-44-44-44-4-|
D|-44-44-44-44-4-|
A|-22-22-22-22-2-|
E|---------------|

Chorus 2 1x
Intro 1x

Fin.
************************************

| /   slide up
| \   slide down
| h   hammer-on
| p   pull-off
| ~   vibrato
| +   harmonic
| x   Mute note
| b   Bend
| pb  Pre-bend
| br  Bend release
| pbr Pre-bend release
| brb Bend release bend

************************************
Show more