• Song:

    Breaking

  • Artist:

    Anberlin

  • Album:

    New Surrender (UK Versi...

Hey this is my first tab online so don’t yell at me if it’s bad :) INSTEAD if u 
notice anything wrong, contact me thundabolt16sta@gmail.com and i will most certainly change it!

Standard Tuning

Intro:
 e|----------------|----------------|----------------|----------------|
 B|----------------|----------------|----------------|----------------|
 G|----4-------4---|----4-------4---|----4-------4---|----4-------4---|
 D|----6-------6---|----6-------6---|----6-------6---|----6-------6---|
 A|4-4-----4-4-----|0-0-----0-0-----|----------------|4-4-----4-4-----|
 E|----------------|----------------|7-7-----7-7-----|----------------|

 |----------------|----------------|----------------|----------------|
 |----------------|----------------|----------------|----------------|
 |----4-------4---|----4-------4---|----4-------4---|----6-------6---|
 |----6-------6---|----6-------6---|----6-------6---|----6-------6---|
 |4-4-----4-4-----|0-0-----0-0-----|----------------|----------------|
 |----------------|----------------|7-7-----7-7-----|7-7-----7-7-----|

 Verse:
 |----------------|----------------|----------------|----------------|
 |----------------|----------------|----------------|----------------|
 |----4-------4---|----4-------4---|----4-------4---|----4-------4---|
 |----6-------6---|----6-------6---|----6-------6---|----6-------6---|
 |4-4-----4-4-----|0-0-----0-0-----|----------------|4-4-----4-4-----|
 |----------------|----------------|7-7-----7-7-----|----------------|

 |----------------|----------------|----------------|----------------|
 |----------------|----------------|----------------|----------------|
 |----4-------4---|----4-------4---|----4-------4---|----4-------4---| 
 |----6-------6---|----6-------6---|----6-------6---|----6-------6---|
 |4-4-----4-4-----|0-0-----0-0-----|----------------|----------------|
 |----------------|----------------|7-7-----7-7-----|7-7-----7-7-----|
 
 |----------------|----------------|----------------|----------------|
 |----------------|----------------|----------------|----------------|
 |----4-------4---|----4-------4---|----4-------4---|----4-------4---|
 |----6-------6---|----6-------6---|----6-------6---|----6-------6---|
 |4-4-----4-4-----|0-0-----0-0-----|----------------|4-4-----4-4-----|
 |----------------|----------------|7-7-----7-7-----|----------------|

 |----------------|----------------|----------------|----------------|
 |----------------|----------------|----------------|----------------|
 |----4-------4---|----4-------4---|----4-------4---|----4---6-6-6-6-| 
 |----6-------6---|----6-------6---|----6-------6---|----6---6-6-6-6-|
 |4-4-----4-4-----|0-0-----0-0-----|----------------|--------4-4-4-4-|
 |----------------|----------------|7-7-----7-7-----|7-7-------------|

  Pre-chorus
 |----------------|----------------|----------------|----------------|
 |----------------|----------------|----------------|----------------|
 |----------------|--------6-6-6-6-|4-4-4-4-4-4-4-4-|4-4-4-4-6-6-6-6-| 
 |7-7-7-7-7-7-7-7-|7-7-7-7-6-6-6-6-|4-4-4-4-4-4-4-4-|4-4-4-4-6-6-6-6-|
 |7-7-7-7-7-7-7-7-|7-7-7-7-4-4-4-4-|2-2-2-2-2-2-2-2-|2-2-2-2-4-4-4-4-|
 |5-5-5-5-5-5-5-5-|5-5-5-5---------|----------------|----------------|

 |----------------|----------------|----------------|----------------|
 |----------------|----------------|----------------|----------------|
 |----------------|--------6-6-6-6-|4-4-4-4-4-4-4-4-|----------------|
 |7-7-7-7-7-7-7-7-|7-7-7-7-6-6-6-6-|4-4-4-4-4-4-4-4-|----------------|
 |7-7-7-7-7-7-7-7-|7-7-7-7-4-4-4-4-|2-2-2-2-2-2-2-2-|----------------|
 |5-5-5-5-5-5-5-5-|5-5-5-5---------|----------------|----------------|

 




Chorus:
 |----------------|----------------|----------------|----------------|
 |----------------|----------------|----------------|----------------|
 |6-6-6-6-6-6-6-6-|----------------|----------------|6-6-6-6-6-6-6-6-| 
 |6-6-6-6-6-6-6-6-|7-7-7-7-7-7-7-7-|9-9-9-9-9-9-9-9-|6-6-6-6-6-6-6-6-|
 |4-4-4-4-4-4-4-4-|7-7-7-7-7-7-7-7-|9-9-9-9-9-9-9-9-|4-4-4-4-4-4-4-4-|
 |----------------|5-5-5-5-5-5-5-5-|7-7-7-7-7-7-7-7-|----------------|

 |----------------|----------------|----------------|----------------|
 |5-5-5-5-5-5-5-5-|----------------|----------------|----------------|
 |6-6-6-6-6-6-6-6-|----------------|----------------|----------------|
 |6-6-6-6-6-6-6-6-|7-7-7-7-7-7-7-7-|9-9-9-9-9-9-9-9-|9-9-9-9---------|
 |4-4-4-4-4-4-4-4-|7-7-7-7-7-7-7-7-|9-9-9-9-9-9-9-9-|9-9-9-9-7-6-4-6-|
 |----------------|5-5-5-5-5-5-5-5-|7-7-7-7-7-7-7-7-|7-7-7-7---------|

 |----------------|----------------|----------------|----------------|
 |----------------|----------------|----------------|----------------|
 |6-6-6-6-6-6-6-6-|----------------|----------------|9-9-9-9-8-8-8-8-| 
 |6-6-6-6-6-6-6-6-|7-7-7-7-7-7-7-7-|9-9-9-9-9-9-9-9-|9-9-9-9-9-9-9-9-|
 |4-4-4-4-4-4-4-4-|7-7-7-7-7-7-7-7-|9-9-9-9-9-9-9-9-|7-7-7-7-6-6-6-6-|
 |----------------|5-5-5-5-5-5-5-5-|7-7-7-7-7-7-7-7-|----------------|

 |----------------|----------------|----------------|----------------|
 |----------------|----------------|----------------|----------------|
 |6-6-6-6-6-6-6-6-|----------------|----------------|----------------| 
 |6-6-6-6-6-6-6-6-|7-7-7-7-7-7-7-7-|9-9-9-9-9-9-9-9-|9-9-9-9-9-9-9-9-|
 |4-4-4-4-4-4-4-4-|7-7-7-7-7-7-7-7-|9-9-9-9-9-9-9-9-|9-9-9-9-9-9-9-9-|
 |----------------|5-5-5-5-5-5-5-5-|7-7-7-7-7-7-7-7-|7-7-7-7-7-7-7-7-|

 Verse 2:
 |----------------|----------------|----------------|----------------|
 |----------------|----------------|----------------|----------------|
 |----4-------4---|----4-------4---|----4-------4---|----4-------4---|
 |----6-------6---|----6-------6---|----6-------6---|----6-------6---|
 |4-4-----4-4-----|0-0-----0-0-----|----------------|4-4-----4-4-----|
 |----------------|----------------|7-7-----7-7-----|----------------|

 |----------------|----------------|----------------|----------------|
 |----------------|----------------|----------------|----------------|
 |----4-------4---|----4-------4---|----4-------4---|----6-------6---| 
 |----6-------6---|----6-------6---|----6-------6---|----6-------6---|
 |4-4-----4-4-----|0-0-----0-0-----|----------------|----------------|
 |----------------|----------------|7-7-----7-7-----|7-7-----7-7-----|

 |----------------|----------------|----------------|----------------|
 |----------------|----------------|----------------|----------------|
 |----4-------4---|----4-------4---|----4-------4---|----4-------4---|
 |----6-------6---|----6-------6---|----6-------6---|----6-------6---|
 |4-4-----4-4-----|0-0-----0-0-----|----------------|4-4-----4-4-----|
 |----------------|----------------|7-7-----7-7-----|----------------|

 |----------------|----------------|----------------|----------------|
 |----------------|----------------|----------------|----------------|
 |----4-------4---|----4-------4---|----4-------4---|----4---6-6-6-6-| 
 |----6-------6---|----6-------6---|----6-------6---|----6---6-6-6-6-|
 |4-4-----4-4-----|0-0-----0-0-----|----------------|--------4-4-4-4-|
 |----------------|----------------|7-7-----7-7-----|7-7-------------|





Pre-Chorus 2
 |----------------|----------------|----------------|----------------|
 |----------------|----------------|----------------|----------------|
 |----------------|--------6-6-6-6-|4-4-4-4-4-4-4-4-|4-4-4-4-6-6-6-6-| 
 |7-7-7-7-7-7-7-7-|7-7-7-7-6-6-6-6-|4-4-4-4-4-4-4-4-|4-4-4-4-6-6-6-6-|
 |7-7-7-7-7-7-7-7-|7-7-7-7-4-4-4-4-|2-2-2-2-2-2-2-2-|2-2-2-2-4-4-4-4-|
 |5-5-5-5-5-5-5-5-|5-5-5-5---------|----------------|----------------|

 |----------------|----------------|----------------|----------------|
 |----------------|----------------|----------------|----------------|
 |----------------|--------6-6-6-6-|4-4-4-4-4-4-4-4-|----------------|
 |7-7-7-7-7-7-7-7-|7-7-7-7-6-6-6-6-|4-4-4-4-4-4-4-4-|----------------|
 |7-7-7-7-7-7-7-7-|7-7-7-7-4-4-4-4-|2-2-2-2-2-2-2-2-|4p6p4p6-7p9p6p9-|
 |5-5-5-5-5-5-5-5-|5-5-5-5---------|----------------|----------------|

Chorus:
 |----------------|----------------|----------------|----------------|
 |----------------|----------------|----------------|----------------|
 |6-6-6-6-6-6-6-6-|----------------|----------------|6-6-6-6-6-6-6-6-| 
 |6-6-6-6-6-6-6-6-|7-7-7-7-7-7-7-7-|9-9-9-9-9-9-9-9-|6-6-6-6-6-6-6-6-|
 |4-4-4-4-4-4-4-4-|7-7-7-7-7-7-7-7-|9-9-9-9-9-9-9-9-|4-4-4-4-4-4-4-4-|
 |----------------|5-5-5-5-5-5-5-5-|7-7-7-7-7-7-7-7-|----------------|

 |----------------|----------------|----------------|----------------|
 |5-5-5-5-5-5-5-5-|----------------|----------------|----------------|
 |6-6-6-6-6-6-6-6-|----------------|----------------|----------------|
 |6-6-6-6-6-6-6-6-|7-7-7-7-7-7-7-7-|9-9-9-9-9-9-9-9-|9-9-9-9---------|
 |4-4-4-4-4-4-4-4-|7-7-7-7-7-7-7-7-|9-9-9-9-9-9-9-9-|9-9-9-9-7-6-4-6-|
 |----------------|5-5-5-5-5-5-5-5-|7-7-7-7-7-7-7-7-|7-7-7-7---------|

 |----------------|----------------|----------------|----------------|
 |----------------|----------------|----------------|----------------|
 |6-6-6-6-6-6-6-6-|----------------|----------------|9-9-9-9-8-8-8-8-| 
 |6-6-6-6-6-6-6-6-|7-7-7-7-7-7-7-7-|9-9-9-9-9-9-9-9-|9-9-9-9-9-9-9-9-|
 |4-4-4-4-4-4-4-4-|7-7-7-7-7-7-7-7-|9-9-9-9-9-9-9-9-|7-7-7-7-6-6-6-6-|
 |----------------|5-5-5-5-5-5-5-5-|7-7-7-7-7-7-7-7-|----------------|

 

 |----------------|----------------|----------------|----------------|
 |----------------|----------------|----------------|----------------|
 |6-6-6-6-6-6-6-6-|----------------|----------------|----------------| 
 |6-6-6-6-6-6-6-6-|7-7-7-7-7-7-7-7-|9-9-9-9-9-9-9-9-|9-9-9-9-2r------|
 |4-4-4-4-4-4-4-4-|7-7-7-7-7-7-7-7-|9-9-9-9-9-9-9-9-|9-9-9-9-2r------|
 |----------------|5-5-5-5-5-5-5-5-|7-7-7-7-7-7-7-7-|7-7-7-7-0r------|
 
 Bridge:
 |0-0-0-0-0-0-0-0-|0-0-0-0-0-0-0-0-|----------------|----------------|
 |2-2-2-2-2-2-2-2-|2-2-2-2-2-2-2-2-|5-5-5-5-5-5-5-5-|5-5-5-5-5-5-5-5-|
 |----------------|----------------|2-2-2-2-2-2-2-2-|2-2-2-2-2-2-2-2-|
 |----------------|----------------|----------------|----------------|
 |----------------|----------------|----------------|----------------|
 |----------------|----------------|----------------|----------------|
 
 |2-2-2-2-2-2-2-2-|2-2-2-2-2-2-2-2-|2-2-2-2-2-2-2-2-|2-2-2-2-2-2-2-2-|
 |5-5-5-5-5-5-5-5-|5-5-5-5-5-5-5-5-|4-4-4-4-4-4-4-4-|4-4-4-4-4-4-4-4-|
 |----------------|----------------|----------------|----------------|
 |----------------|----------------|----------------|----------------|
 |----------------|----------------|----------------|----------------|
 |----------------|----------------|----------------|----------------|
 Repeat 2x

Then there are 7 measures of no guitar, 8th is this:
|----------------|
|----------------|
|----------------|
|9-9-9-9-9-9-9-9-|
|9-9-9-9-9-9-9-9-|
|7-7-7-7-7-7-7-7-|

Then it goes back to the Chorus (3):
 |----------------|----------------|----------------|----------------|
 |----------------|----------------|----------------|----------------|
 |6-6-6-6-6-6-6-6-|----------------|----------------|6-6-6-6-6-6-6-6-| 
 |6-6-6-6-6-6-6-6-|7-7-7-7-7-7-7-7-|9-9-9-9-9-9-9-9-|6-6-6-6-6-6-6-6-|
 |4-4-4-4-4-4-4-4-|7-7-7-7-7-7-7-7-|9-9-9-9-9-9-9-9-|4-4-4-4-4-4-4-4-|
 |----------------|5-5-5-5-5-5-5-5-|7-7-7-7-7-7-7-7-|----------------|

 |----------------|----------------|----------------|----------------|
 |5-5-5-5-5-5-5-5-|----------------|----------------|----------------|
 |6-6-6-6-6-6-6-6-|----------------|----------------|----------------|
 |6-6-6-6-6-6-6-6-|7-7-7-7-7-7-7-7-|9-9-9-9-9-9-9-9-|9-9-9-9---------|
 |4-4-4-4-4-4-4-4-|7-7-7-7-7-7-7-7-|9-9-9-9-9-9-9-9-|9-9-9-9-7-6-4-6-|
 |----------------|5-5-5-5-5-5-5-5-|7-7-7-7-7-7-7-7-|7-7-7-7---------|

 |----------------|----------------|----------------|----------------|
 |----------------|----------------|----------------|----------------|
 |6-6-6-6-6-6-6-6-|----------------|----------------|6-6-6-6-6-6-6-6-| 
 |6-6-6-6-6-6-6-6-|7-7-7-7-7-7-7-7-|9-9-9-9-9-9-9-9-|6-6-6-6-6-6-6-6-|
 |4-4-4-4-4-4-4-4-|7-7-7-7-7-7-7-7-|9-9-9-9-9-9-9-9-|4-4-4-4-4-4-4-4-|
 |----------------|5-5-5-5-5-5-5-5-|7-7-7-7-7-7-7-7-|----------------|

 |----------------|----------------|----------------|----------------|
 |5-5-5-5-5-5-5-5-|----------------|----------------|----------------|
 |6-6-6-6-6-6-6-6-|----------------|----------------|9-9-9-9-8-8-8-8-| 
 |6-6-6-6-6-6-6-6-|7-7-7-7-7-7-7-7-|9-9-9-9-9-9-9-9-|9-9-9-9-9-9-9-9-|
 |4-4-4-4-4-4-4-4-|7-7-7-7-7-7-7-7-|9-9-9-9-9-9-9-9-|7-7-7-7-6-6-6-6-|
 |----------------|5-5-5-5-5-5-5-5-|7-7-7-7-7-7-7-7-|----------------|

 |----------------|
 |----------------|
 |----------------|
 |7r--------------|
 |7r--------------|
 |5r--------------|

 p= pull
 r= ring out
Show more