• Song:

    Cadence

  • Artist:

    Anberlin

  • Album:

    Blueprints For City Fri...

Artist: Anberlin
Song: Cadence
Album: Never Take Friendship Personal
Tuning: DADG

Verse:
G---------------------------------------------|
D--4---2p0---4---2p0--4---2p0---4---2p0-------|
A---------------------------------------------|
E---------------------------------------------|

Chorus:
G---------------------------------------------|
D--7-4-2p0------------------------------------|
A---------------------------------------------|
E---------------------------------------------|

Bridge:
G---------------------------------------------|
D--2-4-0--------------------------------------|
A---------------------------------------------|
E---------------------------------------------|

Solo:
G------------------------------------------------------------|
D-4-2-0----2-4-----2-0-----2-0----4-----0---7-7-2--4---0---7-|
A------------------------------------------------------------|
E------------------------------------------------------------|
Show more