• Song:

    Change The World

  • Artist:

    Anberlin

  • Album:

    Blueprints For The Blac...

Dropped D tuning , E D A D.

They play alot of things alot of times so your going to have to listen to the 
song to figure out how long to play each part.

Intro
E|-------------------------------------------------------------------------------|
D|-7--7--7--7--7--7--7--7--7--7--7--7--5--5--5--5--5--5--10--10--10--10--10--10--|
A|-------------------------------------------------------------------------------|
D|-------------------------------------------------------------------------------|

E|--------------------------------------------------------------------------|
D|x-x-x-7-7---7---9-9---10-10----10----10-10----10-10-10-10-10-10-10-10-10--|x2
A|--------------------------------------------------------------------------|
D|--------------------------------------------------------------------------|

Verse
E|--------------------------------------------------------|
D|-------------------------10-10-10-10-10-10-10-10-10-10--|
A|-6-5-----6-5-6--4x--------------------------------------|
D|------3-------------------------------------------------|

E|---------------------------|
D|---------------------------|
A|-6-5-----6-5-6--4x---------|x15
D|------3--------------------|

Chorus
E|-----------------------------------------------------------------------------|
D|-10------12-------10------5---------------10------5---------------10-----5---|
A|-----------------------------------------------------------------------------|
D|-----------------------------------------------------------------------------|

Verse

E|--------------------------------------------------------|
D|-------------------------10-10-10-10-10-10-10-10-10-10--|
A|-6-5-----6-5-6--4x--------------------------------------|
D|------3-------------------------------------------------|

E|---------------------------|
D|---------------------------|
A|-6-5-----6-5-6--4x---------|x15
D|------3--------------------|


Chorus
E|-----------------------------------------------------------------------------|
D|-10------12-------10------5---------------10------5---------------10-----5---|
A|-----------------------------------------------------------------------------|
D|-----------------------------------------------------------------------------|

End
E|--------------------------------------------------------------------------|
D|x-x-x-7-7---7---9-9---10-10----10----10-10----10-10-10-10-10-10-10-10-10--|x2
A|--------------------------------------------------------------------------|
D|--------------------------------------------------------------------------|


E|-----------------------------------------------------------------------------|
D|-10------12-------10------5---------------10------5---------------10-----5---|
A|-----------------------------------------------------------------------------|
D|-----------------------------------------------------------------------------|x2
Show more