• Song:

    Dance Dance Christa Paffgen

  • Artist:

    Anberlin

-------------------------------------------------------------------------------
		   Dance, Dance Christa Paffgan - Anberlin
-------------------------------------------------------------------------------
Tabbed By: Valerie L.
e-mail: iloled@yahoo.com
Tuning: Drop D

>> keep hitting note

Intro
G|---------------------|
D|---------------------|
A|000000000000000>>>>>-|
D|---------------------|

Verse
G|---------------------------------------------------------------------------|
D|---------------------------------------------------------------------------|
A|00000000>>>>>--3333333333>>>>>-000000000>>>>>-3333333333>>>>---------------|
D|---------------------------------------------------------------------------|

Chorus
G|-----------------|
D|-----------------|
A|0(x25)-3(x25)----|
D|-----------------|

Verse
G|---------------------------------------|
D|---------------------------------------|
A|0~-000000>>-00000033-000000-3333333>>>-|
D|---------------------------------------|

Chorus
G|-----------------------------------------|
D|-----------------------------------------|
A|0(x25)-3333333333333333-5555555555555555-|
D|-----------------------------------------|

Chorus 2
G|-------------------------------------------------------------|
D|-------------------------------------------------------------|
A|--------------------3(x16)/101010---------------------3(x16)-|
D|3(x16)-5(x16)-7(x16)--------------3(x16)-5(x16)-7(x16)-------|

Verse
G|-----------------------------------------------------------|
D|-----------------------------------------------------------|
A|-----00000>>-0333-000000>>>-333333>>-000000>>>--33333>>>>--|
D|5-7~-------------------------------------------------------|

Chorus
G|-------------------------------------------------------------------------|
D|-------------------------------------------------------------------------|
A|--------------------3(x16)/101010---------------------3(x16)-5(x16)8(x16)|
D|3(x16)-5(x16)-7(x16)--------------3(x16)-5(x16)-7(x16)-------------------|

Bridge
G|-------------------------------------|
D|-------------------------------------|
A|-------------------------------------|
D|77777777-33333333-55555555555--3h5---| x4

Breakdown play this until (5:28)
G|---------------------------------------------|
D|---------------------------------------------|
A|----------------------------------------33-2-|
D|77-5-77-5-77-5-77-5-33-2-33-2-33-2-33-2------|

Chorus
G|-------------------------------------------------------------------------|
D|-------------------------------------------------------------------------|
A|--------------------3(x16)/101010---------------------3(x16)-5(x16)8(x16)|
D|3(x16)-5(x16)-7(x16)--------------3(x16)-5(x16)-7(x16)-------------------|

G|---------------------12121212--|
D|5(x16)-7(x16)-10(x16)----------|
A|-------------------------------|
E|-------------------------------|
Show more