• Song:

    Down

  • Artist:

    Anberlin

  • Album:

    Dark Is The Way, Light ...

-------------------------------------------------------------------------------
                             Down - Anberlin
-------------------------------------------------------------------------------
Tabbed by: rokkstar9407
Email: italianmonkey94@yahoo.com

Tuning: Standard
This is the chord progression for basically the whole song. Listen to the song for 
the strum pattern.
Em, Bm, C, G, Em, Bm, C
   Em   Bm    C    G
e|-0-----2----0----3--------------------------------------------------------|
B|-0-----3----1----0--------------------------------------------------------|
G|-0-----4----0----0--------------------------------------------------------|
D|-2-----4----2----0--------------------------------------------------------|
A|-2-----2----3----2--------------------------------------------------------|
E|-0---------------3--------------------------------------------------------|

Now here's the lead parts for the song. Listen to the song to get the exact rhythm.
Intro:
e|----------------------------------|----------------------------------------|
B|-----8-7-7------------------------|-----8-7-7--------10--10/12\10--8-7-----|
G|-----------9-9-7------------------|-----------9-9-7--------------------9-9-|    2x
D|-7/9--------------7brb----7-9-7-9-|-7/9------------------------------------|
A|----------------------10----------|----------------------------------------|
E|----------------------------------|----------------------------------------|

This plays in the last bar in every chorus.
e|--------10----------|
B|-7-8-10-----10-8-10-|
G|--------------------|  4x
D|--------------------|
A|--------------------|
E|--------------------|

Solo:
e|-----------------------------------------------------------------|
B|-------8-7---------------------------8-7----10--10/12\10--8-7----|
G|-----------9-----------------------------9--------------------9--|
D|-7/9-7--------7/9-7------------7/9-7-----------------------------|
A|--------------------9-10-7---------------------------------------|
E|---------------------------10------------------------------------|

e|-----------------------------------------------------------------------------|
B|-----------------------------------------------------------------------------|
G|-4/7-4-7-4---4--7-4----------7-4-7-4---4--7/9-9/11-11/12-12/14-14h16p14-12---|
D|-----------7--------7-5-4-5----------7------------------------------------14-|
A|-----------------------------------------------------------------------------|
E|-----------------------------------------------------------------------------|



************************************

| /   slide up
| \   slide down
| h   hammer-on
| p   pull-off
| brb Bend release bend

************************************
Show more