• Song:

    Down

  • Artist:

    Anberlin

  • Album:

    Dark Is The Way, Light ...

Anberlin- Down
Album- Dark Is the Way, Light Is a Place

You can watch this video on youtube...
http://www.youtube.com/watch?v=HTKj5-v1eYY


Guitar 1 
e|---3---3---3---3---|
B|---3---3---3---3---|
G|---0---2---0---2---|  Play through whole song, listen for timing and 
D|---2---0---2---0---|	strum pattern 
A|---2---0---3---0---|	
E|---0---2---x---3---|

Intro: 
Guitar 1: Chords above
Guitar 2
e|-------------------------------------------|
B|-------------------------------------------|
G|---12-12-12-11-11-9-9-7--------------------|
D|-------------------------9/7-5---7/9-7h9---|
A|-------------------------------------------|
E|-------------------------------------------|

e|------------------------------------------------------|
B|------------------------------------------------------|	
G|---12-12-12-11-11-9-9-7---14-14/16-14--12-11-11-9-9---|
D|------------------------------------------------------|
A|------------------------------------------------------|
E|------------------------------------------------------|

                      Play Twice

Verse
Guitar 1: Chords
Guitar 2: Chords
   You would have loved who I   used to be, 
   Yesterday I would have hated the boy you see 
   When you found me I was  at my worst 
   The best I was is a long forgotten curse. 


Chorus
Guitar 1: Chords
Guitar 2
e|--10--10-----------|
B|--10--12-----------|
G|--12--12-----------|	
D|--xx--xx-----------| Play throughout chorus except the last part where you 
A|--xx--xx-----------|	would come in with the riff
E|--xx--xx-----------|

   You caught me on my way     down 
   Please hold my hand before I drown 
   Tie my hands before I   burn this town 

Guitar 2: Riff
e|------10------------10---------------|
B|----8----8--------8----8-------------|  Play when he sings  
G|---7-7--7-7------7-7--7-7------------|  ‘You caugh me...' 
D|-------------------------------------| x2
A|-------------------------------------|  
E|-------------------------------------| 
   You caught me on my way      down 


Verse
Guitar 1: Chords
Guitar 2: Chords
   I feel like a shell of yester years gone by 
   Bad decisions like those that just won’t die 
   I'm so sorry that I can't apologize 
   What comes next is another long goodbye 


Chorus
Guitar 1: Chords
Guitar 2: 
e|--10--10-----------|
B|--10--12-----------|
G|--12--12-----------|	
D|--xx--xx-----------| 
A|--xx--xx-----------|	
E|--xx--xx-----------|

   You caught me on my way     down       (hunny hunny)
   Please hold my hand before I drown 
   Tie my hands before I   burn this town 

Guitar 2
e|------10------------10---------------|
B|----8----8--------8----8-------------|
G|---7-7--7-7------7-7--7-7------------|
D|-------------------------------------|   x2
A|-------------------------------------|  
E|-------------------------------------|
   You caught me on my way      down 


Guitar 1: Chords
Guitar 2: Solo
e|-----------------------------------|
B|-----------------------------------|
G|-----------------------------------|
D|---9h10-9-17-16-14---7/9-7---------|
A|--------------------------9-10-7---|
E|-----------------------------------|

B|-----------------------------------------------------|
G|-----------------------------------------------------|
D|---9h10-9-17-16-14---17/19-20-19---17-16-16-14-------|
A|-----------------------------------------------------|
E|-----------------------------------------------------|

e|------------------------------------------|
B|------------------------------------------|
G|------------------------------------------|
D|---12-9-12-9-7/9-----12-9-7-5-4/5---------|
A|------------------------------------------|
E|------------------------------------------|

e|-----------------------------------------------------------|
B|-----------------------------------------------------------|
G|-----------------------------------------------------------|
D|---12-9-12-9-7/9-----12/14-14/16 16/17-17/19-19/20/19-17---|
A|-----------------------------------------------------------|
E|-----------------------------------------------------------|

Chorus
Guitar 1: Chords
Guitar 2
e|--10--10-----------|
B|--10--12-----------|
G|--12--12-----------|	
D|--xx--xx-----------|  
A|--xx--xx-----------|	
E|--xx--xx-----------|

   You caught me on my way     down       (hunny hunny)
   Please hold my hand before I drown 
   Tie my hands before I   burn this town 

Guitar 2
e|------10------------10---------------|
B|----8----8--------8----8-------------|
G|---7-7--7-7------7-7--7-7------------|
D|-------------------------------------|   x2
A|-------------------------------------|  
E|-------------------------------------|
   You caught me on my way      down 

Guitar 1: Chords
Guitar 2
e|--10--10-----------|
B|--10--12-----------|
G|--12--12-----------|	
D|--xx--xx-----------|  
A|--xx--xx-----------|	
E|--xx--xx-----------|

   You caught me on my way     down       (hunny hunny)
   Please hold my hand before I drown 
   Tie my hands before I   burn this town 

Guitar 2
e|------10------------10---------------|
B|----8----8--------8----8-------------|
G|---7-7--7-7------7-7--7-7------------|
D|-------------------------------------|   x2
A|-------------------------------------|  
E|-------------------------------------|

   You caught me on my way      down
Show more