-----------------------------------------------------------------------------
Tab by Hallelujah_DK
From the movie "Terkel i Knibe".
-----------------------------------------------------------------------------

Capo on 1st fret

Start          Verse 1 beginning..
                    C          G5          F           C
e|------------|-----0----------3-----------1-----------0---|
B|------------|-----1----------3-----------1-----------1---|
G|------------|---0---0------0---0-------2---2-------0---0-|
D|------------|--------------------------------------------|
A|---0-2------|-3----------------------------------3-------|
E|-3----------|------------3-----------1-------------------|
                Her er en historie...  

            F          C           D7         G5
     e|-----1----------0-----------2-----------3---|
     B|-----1----------1-----------1-----------3---|
     G|---2---2------0---0-------2---2-------0---0-|
     D|------------------------0-------------------|
     A|------------3-------------------------------|
     E|-1----------------------------------3-------|
Han er syv aar...

             F          C           D7         G5
      e|-----1----------0-----------2-----------3---|
      B|-----1----------1-----------1-----------3---|
      G|---2---2------0---0-------2---2-------0---0-|
      D|------------------------0-------------------|
      A|------------3-------------------------------|
      E|-1----------------------------------3-------|
Han staar tidligt...

            F          C          G5         C
     e|-----1----------0----------3---------0-------|
     B|-----1----------1----------3---------1-------|
     G|---2---2------0---0------0-----------0-------|
     D|-------------------------------------2-------|
     A|------------3------------------------3-------|
     E|-1---------------------3---------------------|
For Quang har nok...


          Verse 2 beginning..
                    C          G5          F           C
e|------------|-----0----------3-----------1-----------0---|
B|------------|-----1----------3-----------1-----------1---|
G|------------|---0---0------0---0-------2---2-------0---0-|
D|------------|--------------------------------------------|
A|---0-2------|-3----------------------------------3-------|
E|-3----------|------------3-----------1-------------------|
           Hver morgen...  


            F          C           D7         G5
     e|-----1----------0-----------2-----------3---|
     B|-----1----------1-----------1-----------3---|
     G|---2---2------0---0-------2---2-------0---0-|
     D|------------------------0-------------------|
     A|------------3-------------------------------|
     E|-1----------------------------------3-------|
Gennem tornekrat...

            F          C           D7         G5
     e|-----1----------0-----------2-----------3---|
     B|-----1----------1-----------1-----------3---|
     G|---2---2------0---0-------2---2-------0---0-|
     D|------------------------0-------------------|
     A|------------3-------------------------------|
     E|-1----------------------------------3-------|
        vandet det er

         F          C            G5         C
     e|-----1----------0----------3---------0-------|
     B|-----1----------1----------3---------1-------|
     G|---2---2------0---0------0-----------0-------|
     D|-------------------------------------2-------|
     A|------------3------------------------3-------|
     E|-1---------------------3---------------------|
saa han dykker..

CHORUS

_____________________________________________________________________________

Lyrics + Chords

Verse 1
C           G5             F               C
Her er en historie om en dreng der hedder Quang
       F           C                D7             G5
han er 7 aar, bor i Thailand og hans arbejdsdag er lang
         G5             C              D7             G5
han staar tidligt om om morgenen og gaar meget sendt i seng
    F                C                 G5          C
for Quang har nok at se til, skoent han bare er en dreng

Verse 2
C                   G5            F             G5
Hver morgen klokken kvart i fem gaar Quang alene ned
       F            C               D7               G5
gennem tornekrat og tidsler, til en baad ved flodens bred
F             C                   D7            G5   
vandet det er moerkt og koldt, men familien har gaeld
   F                C          G5               C
saa han dykker efter perler, for det meste uden held


Chorus 
         F              C           G5        C
Saa hvordan kan du dog sige, at du ikke er tilfreds
      F                  C                  D7                G5
at din far er dum og din mor er sur og dine lektier gir dig stress 
       F                C             F            C
du har alt hvad du skal bruge, du har toej og flaeskesteg
         F               C                 G5            C
og der er tusinde boern i verden, der ville oenske de var dig


Verse 1
C               G5                F            C
Quang har ingen far mer` og hans mor er meget syg
   F              C         D7           G5
saa Quang maa tjene penge inde i den store by
    F              C                 D7         G5
Han staar i larm og bilos dagen lang i al slags vejr
   F             C                   G5           C
og pudser sko paa rige folk - men gaar selv i bare taeer

Verse 2
   C             G5               F            C
Og naar det saa er weekend faar han ingen loerdagsslik
    F               C              D7              G5
for om loerdagen der knokler han paa den stoejende fabrik
    F                  C               D7                G5
med ledninger der skal klippes ud - og den klarer lille Quang
    F             C               G5          C
han maa bruge sine taender, han har ikke nogen tang


Chorus
   F                 C              G5                   C
Saa hva faen faar dig til at tro, at jeg vil hoere paa dit brok
   F                  C          D7                 G5
at du ik' kan li' din spinat og ik' faar lommepenge nok
       F           C                 F               C
du har grillmad og Nintendo - du har tid til pjat og leg
         F               C                G5             C
og der er tusinde boern i verden, der ville oenske de var dig


Verse 1
C                 G5             F              C
Quang, han er den aeldste af en soeskendeflok paa 10
          F              C              D7         G5
saa det er ham, der laver aftensmad, naar dagen er forbi
       G5            C                 D7          G5
der er munde nok at maette, og det kan ofte vaere svaert
   F                      C          G5           C
saa Quang har koebt en tube lim som de sniffer til dessert

Verse 2
C                           G5            F               C
Naar Quang har lagt de smaa i seng, er han selv saa doedsens traet
             F         C                D7             G5
men han maa af sted til byen igen selvom det er blevet nat
    F           C                  D7          G5               
for han har et staevnemoede, som han planlagde i gaar
    F            C                  G5         C
med sin kaereste, Heinrich Schultze, der er 45 aar.


Chorus
    F             C               G5                 C
Saa hvordan kan du fortaelle mig at du har et daarligt liv
   F                  C           D7             G5
er du soed at proeve at se det i et stoerre perspektiv
F              C                    F                   C
ta' og taenk paa andre end dig selv - ta' ved laere af min sang
F              C                          G5          C
husk paa du har det godt - hvis ik' du har det ligsom Quang.


Outro
     F             C                      G5          C
Husk paa du har det godt - hvis ik' du har det ligsom Quang.


1st tab :))))))))
So do tell me, if there is a need for changes..
Show more