Andra And The Backbone - Sempurna

I edited this from the tabs i've posted before this;-)


Standard Tuning [eBGDAE]

Chords;

[intro] E E

[verse] E C#m A-B C#m

[bridge] A B C#m C#m A B

[chorus] E B A E B A C#m G#m A C#m G#m A F# E C#m


Tabs;

Intro:

  [E]
E -------------------------------------------------|
B -5-------5---4-------4---2-------2---4-------4---|
G -----4-----------4-----------4-----------4-------|
D -2-2---2---2-2-2---2---2-2-2---2---2-2-2---2---2-|
A -------------------------------------------------|
E -------------------------------------------------|

  [E]
E -------------------------------------------------|
B -5-------5---4-------4---2-------2---4-------4---|
G -----4-----------4-----------4-----------4-------|
D -2-2---2---2-2-2---2---2-2-2---2---2-2-2---2---2-|
A -------------------------------------------------|
E -------------------------------------------------|


Verse:

  [E]
E -------------------------------------------------|
B -5-------5---4-------4---2-------2---4-------4---|
G -----4-----------4-----------4-----------4-------|
D -2-2---2---2-2-2---2---2-2-2---2---2-2-2---2---2-|
A -------------------------------------------------|
E -------------------------------------------------|

  [C#m]
E -------------------------------------------------|
B -5-------5---4-------4---------------4-------4---|
G -----4-----------4-------6---4---6-------4-------|
D -------------------------------------------------|
A -4-4---4---4-4-4---4---4-4-4---4---4-4-4---4---4-|
E -------------------------------------------------|

  [A]                     [B]
E -4-------4---2-------2---4-------4---2-------2---|
B -----5-----------5-----------5-----------5-------|
G -------------------------------------------------|
D -------------------------------------------------|
A -0-0---0---0-0-0---0---0-2-2---2---2-2-2---2---2-|
E -------------------------------------------------|

  [C#m]
E -------------------------------------------------|
B -5-------5---4-------4---------------4-------4---|
G -----4-----------4-------6---4---6-------4-------|
D -------------------------------------------------|
A -4-4---4---4-4-4---4---4-4-4---4---4-4-4---4---4-|
E -------------------------------------------------|


Bridge:

  [A]                     [B]
E -7-----------7-----------7-----------7-----------|
B -----7-----------7-----------7-----------7-------|
G ---------9-----------9-----------9-----------9---|
D -------------------------------------------------|
A -0-0---0---0-0-0---0-----------------------------|
E -----------------------7-7-7---7---7-7-7---7---7-|


  [C#m]
E -7-----------7-----------7-----------7-----------|
B -----7-----------7-----------7-----------7-------|
G ---------9-----------9-----------9-----------9---|
D -------------------------------------------------|
A -------------------------------------------------|
E -9-9---9---9-9-9---9---9-9-9---9---9-9-9---9---9-|

  [A]                     [B]
E -7-----------7-----------7-------------x---------|
B -----7-----------7-----------7-------7-x---------|
G ---------9-----------9-----------9---8-x---------|
D ---------------------------------------x---------|
A -0-0---0---0-0-0---0-------------------x---------|
E -----------------------7-7-7---7---7-7-x---------|

Chorus:

  [E]          [B]           [A]
E ----------------------------4-----------5------------|
B -5-------5----4h5------4--------5-----------5--------|
G -----4-------------4----------------2-----------2----|
D -2-2---2---2-----------------------------------------|
A --------------2--2---2---2--0-0---0---0-0-0---0---0--|
E -----------------------------------------------------|

  [E]          [B]           [A]
E ----------------------------4-----------4------------|
B -5-------5----4h5------4--------5-----------5--------|
G -----4-------------4----------------2-----------2----|
D -2-2---2---2-----------------------------------------|
A --------------2--2---2---2--0-0---0---0-0-0---0---0--|
E -----------------------------------------------------|

  [C#m]         [G#m]         [A]
E ----------------------------4-----------4------------|
B -5-------5----4h5------4--------5-----------5--------|
G -----4-------------4----------------2-----------2----|
D -----------------------------------------------------|
A -4-4---4---4----------------0-0---0---0-0-0---0---0--|
E --------------4--4---4---4---------------------------|

  [C#m]         [G#m]         [A]          [F#]
E ----------------------------4--------------------4p2-2-0--|
B -5-------5----4h5------4--------5--------------4----------|
G -----4-------------4----------------2--------3------------|
D ----------------------------------------------------------|
A -4-4---4---4----------------0-0---0---0----4--------------|
E --------------4--4---4---4---------------2----------------|


  [E]
E -------------------------------------------------|
B -5-------5---4-------4---2-------2---4-------4---|
G -----4-----------4-----------4-----------4-------|
D -2-2---2---2-2-2---2---2-2-2---2---2-2-2---2---2-|
A -------------------------------------------------|
E -------------------------------------------------|

  [C#m]
E -------------------------------------------------|
B -5-------5---4-------4---2-------2---4-------4---|
G -----4-----------4-----------4-----------4-------|
D -------------------------------------------------|
A -4-4---4---4-4-4---4---4-4-4---4---4-4-4---4---4-|
E -------------------------------------------------|
Show more