• Song:

    For My Father

  • Artist:

    Andy Mckee

  • Album:

    Art of Motion

hey i think i figured out the intro :p
capo : 3th fret
tuning :ecdgad


d--------------0-------------0---------0------------|  repeat 1 time
a--2-/-5--3-----3--------3/5---5---------5--------0-|
g--0------0------0------------------0-----0---------|
d--0------2-2-----2----2----------4---------4-------|
c---------0--------0~----------2--------------2~----|
e---------------------------------------------------|

                             [rake]
d-----0------0-----------------------0-------------------|
a-2h3-----7--------0-------------7~-------0--------------|
g---------0-----0-----------0---x------0-----------0-----|
d---------7--------------7-----7----------------7--------|
c---------------------5----------------------5-----------|
e---------0--------7----------------------7--------------|


d----------0---------------------------------------|
a-----3------3--------0h2----3p2p0-----0-----------|
g----4-4-------4----0---------------0------0-~-----|
d---5---5--------5-----------------------0---------|
c--------------------------0-----------------------|
e-5------------------------------------------------|

well that's all folks lol :p
comments are welcome :)
Show more