• Song:

    For My Father

  • Artist:

    Andy Mckee

  • Album:

    Art of Motion

-TUNING:EADGAd
-for the guys that dont know,tune your e string DOWN to a D,your B string DOWN to an A 
note the "DOWN" part so that you dont pop your strings...

-leave you regular E,A,D,and G strings alone
-CAPO:3rd fret

***i take absolutly no credit for this tab***

D|-----------0------------------0---|-------0----------------------|
A|-2/5-3-------3------------3/5-----|-5-------5------------0-2-3/5-|
G|-0-------0-----0--------0-------0-|-----0-----0--------0---------|
D|-------2---------2----2-----------|---4---------4----4-----------|
A|-----0-------------0--------------|-2-------------2--------------|
E|----------------------------------|------------------------------|

D|-------0------------------0---|-------0----------------------|
A|-3-------3------------3/5-----|-5-------5------------0-2-3/5-|
G|-----0-----0--------0-------0-|-----0-----0--------0---------|
D|---2---------2----2-----------|---4---------4----4-----------|
A|-0-------------0--------------|-2-------------2--------------|
E|------------------------------|------------------------------|

D|---0----------------|-0---------------|
A|-7-------0--------7-|-------0---------|
G|------0--------0--0-|----0---------0--|
D|------------7-----7-|-----------7-----|
A|--------------------|-----------------|
E|-0-------7--------0-|-------7---------|

D|-------------0---------------|----------------------|
A|-------3-------3---------0h2-|----3p2-0----0--------|
G|-----4---4-------4----0------|----------0---------0-|
D|---5-------5-------5---------|----------------0-----|
A|-----------------------------|-0--------------------|
E|-5---------------------------|----------------------|


 (0:25)
D|--------------0---------------------|
A|------0-0h2-----3p2p0---0-----------|
G|---0------------------0----0--------|
D|-0----------0-----------------------|
A|----------------------------------4-|
E|--------3---------------2----X--2---|

D|----------------------------|
A|-------0-----0--------------|
G|---0-----0-2---2-4p2-0------|
D|-0----------------------0-2-|
A|------------------------0---|
E|-----0----------------------|

D|----------------------------|---------0----------0-----------|
A|---------0h2---3p2-0---0----|----------------0-2---0h2p0---0-|
G|-0-----0-0-----------0----0-|----------------------------0---|
D|---2p0-------0--------------|-----2/4------2-----------------|
A|----------------------------|-----------0------------------2-|
E|---------3-------------2----|-X-2----------------------------|

D|---------------------0---------|---------------------------|
A|-------------0-0h2-----2h3p2-0-|---0-------------------0---|
G|-0--------0----0---------------|-0---0---------0---0h2---2-|
D|---4b(5)-----------0-----------|-------------0-------------|
A|-------------------------------|-----------4---------------|
E|---------------3---------------|---2---X-2-------0---------|

D|------------------------------|--------------------------|
A|-0----------------------0h2---|-3-2-0---0--------------0-|
G|---4p2p0--------0-----0-0-----|-------0---0----------0---|
D|----------0h2~----2p0-------0-|--------------------0-----|
A|----------0-------------------|------------------4-------|
E|------------------------3-----|---------2---X--2-------3-|

D|------------|-4h5----5p4-0---0h2----3-2-0-|
A|------------|-5---------------------------|
G|-0----------|-----0--------0-----0--------|
D|----0---0---|-----------------------------|
A|------0-----|----------------0------------|
E|----------7-|-0---------------------------|

D|-------0--0-------2-----|---4h5----7(b9)0-5h7-5---|
A|-0h2-3-0--0-----5---5---|---5------------5--------|
G|-0------------2-------0-|-------0-----------------|
D|------------2-----------|-------------------------|
A|------------------------|----------------0--------|
E|-3--------2-------------|-0-----------------------|


                                   (01:05)
D|---------0---------------|---------------|
A|---5h7--------0----------|-------------0-|
G|-0-----0---------0-----0-|----------0----|
D|-----------0--------2----|-/4-----0------|
A|-------------------------|---------------|
E|-------------------------|---------------|

D|-------0-----------------------|------------------------------|
A|-0h2-----2h3p2-0---0-----------|--------0-----0---------------|
G|-----------------0----0--------|---0------0-2---2-4p2-0-------|
D|-----0-------------------------|-0-----------------------0h2~-|
A|-----------------------------4-|-------------------------0----|
E|-3-----------------2----X--2---|-----0------------------------|

D|-----------------------------|----------0----------0-----------|
A|---------0h2----3p2-0---0----|-----------------0-2---0h2p0---0-|
G|-0-----0-0------------0----0-|------2/4--------------------0---|
D|---2p0-------0---------------|---------------2-----------------|
A|-----------------------------|------------0------------------2-|
E|---------3--------------2----|-X--2----------------------------|

D|---------------------0---------|---------------------------|
A|-------------0-0h2-----2h3p2-0-|---0-------------------0---|
G|-0--------0----0---------------|-0---0---------0---0h2---2-|
D|---4b(5)-----------0-----------|-------------0-------------|
A|-------------------------------|-----------4---------------|
E|---------------3---------------|---2---X-2-------0---------|

D|------------------------------|--------------------------|
A|-0----------------------0h2---|-3-2-0---0--------------0-|
G|---4p2p0--------0-----0-0-----|-------0---0----------0---|
D|----------0h2~----2p0-------0-|--------------------0-----|
A|----------0-------------------|------------------4-------|
E|------------------------3-----|---------2---X--2-------3-|

D|------------|-4h5----5p4-0---0h2----3-2-0-|
A|------------|-5---------------------------|
G|-0----------|-----0--------0-----0--------|
D|----0---0---|-----------------------------|
A|------0-----|----------------0------------|
E|----------7-|-0---------------------------|

D|-------0--0-------2-----|---4h5----7(b9)0-5h7-5---|
A|-0h2-3-0--0-----5---5---|---5------------5--------|
G|-0------------2-------0-|-------0-----------------|
D|------------2-----------|-------------------------|
A|------------------------|----------------0--------|
E|-3--------2-------------|-0-----------------------|

D|---------0---0----------------|
A|---5h7---------0--------------|
G|-0-----0----------0-----0-----|
D|-----------0--------0h2----/4-|
A|------------------------------|
E|------------------------------|

  (01:30)
D|----------2-4---0------------|--------------0---------------|
A|--------0------------------0-|--------3-------3-----0h2-0---|
G|------0-------0--------0-----|---0------4-------0---------0-|
D|----0--------------------7---|-0----------5-----------------|
A|-0-----------------6~--------|--------------------0---------|
E|----------------7------------|-----5------------------------|

D|------------------0----------|-----------------------5------4-|
A|--------------0h2---0----0h2-|----3p2-0-----------3---------2-|
G|-------0---------------0-----|-----------0------4-------------|
D|-0-2-4------0----------------|-0--------------5---------------|
A|-----------------------------|----------------------------0---|
E|---------0----------2----3---|-------------5-----------X------|

D|-2p0---------------2p0---0-|-----------------------0-------|
A|--------2p0----------------|--------0--------3-------3-----|
G|------------0----0-----0---|----0-------0------4-------0---|
D|------0--------------------|------7---0----------5---------|
A|--------------0------------|-6~--------------------------0-|
E|-------------------------7-|--------------5----------------|

D|-------------------------0---|----------------------------|
A|-0h2-0---------------0h2---0-|---0h2----3p2p0-----------3-|
G|-------0-------0-------------|-0---------------0------4---|
D|----------2/4~-----0---------|-------0--------------5-----|
A|-----------------------------|----------------------------|
E|-----------------0---------0-|---3---------------5--------|

D|-5------(b9)-7p5----4p0-----|-----0h2p0---0----------------------|
A|--------5--5------5-------|--------------------------------------|
G|----------------------0---|---0-------0------0------0------------|
D|---X------------0---------|-2----------------4b(5)-------0-------|
A|---X--0-----------------0-|-------------2-------------X----0-----|
E|---X----------------------|--------------------------------------|

D|--------4----------------0-|-------2-0-----0-------------|
A|-----2----------------2----|-------------0---------------|
G|---0---------0------0------|-----------0------0------0---|
D|-2----------------4--------|----2---------------4b(5)----|
A|----------X----2-----------|-0-------------2-----------X-|
E|---------------------------|-----------------------------|

D|------------5--4-0----------|--------------|
A|----------0--------------0----|-----0-------|
G|--------0-------------------0-|---0---------|
D|-0----5--------4-0--0-------|-2------/4----|
A|---0--------------------------|-------------|
E|------------------------------|-------------|


  (02:20)                                          (02:25)
D|-----------------------|--0--------------0h2p0---2---|
A|-----------0-----------|-------0-------0-----------0-|
G|----------------0------|-------------0---------0-----|
D|---0----0------------0-|-----------4-----------------|
A|-0-----------X---------|----X--------------------0---|
E|-----3-------X----2----|----X----0-------------------|

D|---4-----5-----4-----5-----7-----|-4-----5-----7-----4-----5-----0-|
A|-----0-----0-----0-----0-----0---|---0-----0-----0-----0-----0-----|
G|-0-----0-----0-----0-----0-----0-|-----0-----0-----0-----0-----0---|
D|---------------0-----------------|---------------------------------|
A|---------------------------------|---------------------------------|
E|---------------------------------|-3-----------------2-------------|

D|-----9p5-----5---------7p4-----4-|---0---------------0--------------|
A|-0---------5---5---0---------5---|-----0---------2h3---3p2-0---0----|
G|---0-----7-------7---0-----0-----|-7-----0-----0-------------0----0-|
D|-----------------------0---------|-----------0----------------------|
A|-----0---------------------------|----------------------------------|
E|---------------------------------|---------3-------------------2----|

                                      (02:38)
D|--------------------0---------|-----------------|
A|-----------------2-----0------|---------------0-|
G|--------0------0----------0---|----------0------|
D|-4b(5)-------0----------------|-0----1---1------|
A|------------------------------|------3------3---|
E|-----------1----------------0-|-----------------|

D|-----------------0-----------------|
A|-1p0-0---2---3/5---------3--2-0--0-|
G|-----------0-----------0---------0-|
D|-------0-----------0-2-----------4-|
A|-----------------------------------|
E|-----3-----------------------------|

D|------2p0-----0------------|--------------0---------------|
A|------------0------------0-|--------3-------3-----0h2p0---|
G|----------0----------0-----|---0------4-------0---------0-|
D|----2------------------7---|-0----------5-----------------|
A|-0---------------6~--------|--------------------0---------|
E|--------------7------------|-----5------------------------|

D|-----------------0----------|---------------------5------(b9---|
A|-------------0h2---0----0h2-|---3p2-0----------3---------5-----|
G|-------0-------------0------|---------0------4-----------------|
D|-0h2-4-----0----------------|-0------------5-------------------|
A|----------------------------|--------------------------0-------|
E|---------0---------2----3---|-----------5-----------X----------|

D|-7p5----4p0---------2p0---|---0-------------------------4-|
A|-5-----5------------------|-0---------------------------2-|
G|------------0-----------0-|------0--------0-------------0-|
D|-----0-----------2--------|--------4b(5)-------0-----2----|
A|--------------0-----------|---2-------------X----0--------|
E|--------------------------|-------------------------------|

D|--------0-|--------2p0-----0----------|
A|--------2-|--------------0------------|
G|--------0-|------------0------0-------|
D|-----4----|-----2---------------4b(5)-|
A|-2--------|--0-------------2----------|
E|----------|---------------------------|

D|-------------5---4-0-------|--------------------|
A|---------------------------0-|-----------0-------|
G|-0---------0-----------------|--0------0---------|
D|------0------5---4-0--0----|-----0-2-----2/4----|
A|---X----0--------------------|-------------------|
E|-----------------------------|-------------------|

D|--------------0-----------------|-------------------------------|
A|----0----2------3p2-0----0------|------------0-----0------------|
G|-0---------------------0----0---|-------0------0-2---2-4p2p0----|
D|-----------0--------------------|-----0-----------------------0-|
A|--------------------------------|---4-------------------------0-|
E|------3------------------2----X-|-2-------0---------------------|

D|---------------------------|---------------0----------0-----|
A|------------0h2----3p2-0---|-0--------------------0-2---0h2-|
G|----0-----0-0------------0-|----0------2/4------------------|
D|-2----2p0-------0----------|--------------------2-----------|
A|---------------------------|-----------------0--------------|
E|------------3--------------|-2----X--2----------------------|

D|----------------------------|-0--------------------------------|
A|-0---0----------------0h2---|---2h3p2-0---0--------------------|
G|---0----0---------0---0-----|-----------0----0----------0----0-|
D|----------4b(5)-----------0-|-------------------------0--------|
A|-----2----------------------|-----------------------4----------|
E|----------------------3-----|-------------2----X--2-------0----|

D|-------------------------------|----------------------------|
A|---0---0---------------------0-|-2----3-2-0---0-------------|
G|-2---2---4p2-0-------0-----0-0-|------------0----0----------|
D|---------------0h2-----2p0-----|---0----------------------0-|
A|---------------0---------------|------------------------4---|
E|-----------------------------3-|--------------2----X--2-----|

D|----------------------|
A|---0--------------0h2-|
G|-0----0-----------0---|
D|----------0----0--0---|
A|------------0---------|
E|---3--------------3---|

**HAVE FUN AND ENJOY**
Show more