• Song:

    Rylynn

  • Artist:

    Andy Mckee

  • Album:

    Art of Motion

Rylynn
                           Andy Mckee
Note: tuning is ECDGAD, capo on 5th fret from strings 6 to 4, strings G,D,C, and E will
have numbers starting from the capo, while the other two strings that the capo doesn't
touch will have numbers from the nut of the guitar (please don't be mad if its confusing,
the capo makes this song really hard to tab)      
           This is the intro, I'll try to post more later
             Constructive critism only please :)

D---0h7h9--10----9/10\9---0----10---9------12-------10--9h10p9--0-----|
A-----------0-------------7~----0------10------------0----------7~----|
G-----------0-------------0-----0---------------5----0----------0-----|
D-----------0-------------0-----0--------------------0----------0-----|
C-----------0-------------0-----0--------------------0----------0-----|
E-------------------------0-------------------------------------0-----|

D--------0------------------------------------------------------------|
A------5---------2----------------------------------------------------|
G----0----0---0--------0-2-4--2----9--7---0-2-4--2-----------0--0-----|
D--0----0---0----------0---2--4----7--9---0---2--4------0-------0-----|
C----------------------0---0--0----0--0---0---0--0--------------4-----|
E----------------------0---3--3----8--8---0---3--3---7----7-----7-----|

D----------------------------7/9--10-9--------9-10--10/12-14--10--5---|
A------------------------8---------------10----------------0---8--2---|
G--0-2-4--2---9--7-----------------------------------------0---0--0---|
D--0---2--4---7--9-----------------------------------------0---0--0---|
C--0---0--0---0--0------------------------------------------------0---|
E--0---3--3---8--8-------5----------------7---------------------------|
Show more